Song name
# A B C D E F G H I J K L M N O P Q R S T U V W X Y Z

Every Single Day - Echo I Hear Your Voice Ost tab

Btw, I love the show, a lot.

No capo

Intro (G Bm Em)

e|7-7-5-5-3-3-2-2-3-3-2-2-0-----------------------------|
B|--------------------------3-3-5-----------------------|
G|--------------------------------------4-2---4---------|
D|------------------------------------------------------|
A|------------------------------------------------------|
E|------------------------------------------------------|

e|7-7-5-5-3-3-2-2-3-3-2-2-0-----------0-2---------------|
B|--------------------------3-3-5-----------------------|
G|------------------------------------------------------|
D|------------------------------------------------------|
A|------------------------------------------------------|
E|------------------------------------------------------|

G       Bm   Em  G        Bm             Em
oraen gieoge neon nal gidarineun geotcheoreom
     C                D
soksagideut sonjiseul hane
G     Bm         Em G        Bm              Em
geuriume yeongwonhi hollo namgyeojin geotcheoreom
       C                D
han georeumssik naege dagawa

(Intro)
       C                D
han georeumssik naege dagawa


        G          Bm          Em           C
gipeun mam gipeun sok gipeun neoui moksorireul
        G          Bm          Em          C
gipeun mam gipeun sok gipeun neoui moksoriga
       G Bm     Em   C
deullyeo~ deullyeo~
       G Bm     Em   C
deullyeo~ deullyeo~

(Intro)

oraen gieoge neon nal gidarineun geotcheoreom
soksagideut sonjiseul hane

gipeun mam gipeun sok gipeun neoui moksorireul
gipeun mam gipeun sok gipeun neoui moksoriga
deullyeo~ deullyeo~
deullyeo~ deullyeo~
gipeun mam gipeun sok gipeun neoui moksorireul
gipeun mam gipeun sok gipeun neoui moksoriga
deullyeo~ deullyeo~
deullyeo~ deullyeo~

(Intro)

And the English translation

As if you’re waiting in my long-time memories
You beckon to me as if you’re whispering
As if left alone forever in longing
You come to me step by step
You come to me step by step

Deep heart, deep thoughts, your deep voice
Deep heart, deep thoughts, your deep voice
I hear it, I hear it
I hear it, I hear it

As if you’re waiting in my long-time memories
You beckon to me as if you’re whispering

Deep heart, deep thoughts, your deep voice
Deep heart, deep thoughts, your deep voice
I hear it, I hear it
I hear it, I hear it
Deep heart, deep thoughts, your deep voice
Deep heart, deep thoughts, your deep voice
I hear it, I hear it
I hear it, I hear it

I was going to put the Korean lyrics on but it seems that it won't work. Sorry guys
Tap to rate this tab
# A B C D E F G H I J K L M N O P Q R S T U V W X Y Z