Song name
# A B C D E F G H I J K L M N O P Q R S T U V W X Y Z

Every Time I Die - Inrihab tab

Legend:
~ Let ring
. Palm mute
\ Slide down
h Hammer-on
b Bend


(no solo

Intro
e|--------------------------------------------------------------------------------|
B|--------------------------------------------------------------------------------|
G|--------------------------------------------------------------------------------|
D|-10~--10~--------------------------------------------------------------10-12b10-|
A|-8~~--8~~------------8------------------8-10-8----------8------8-10-12----------|
D|---------0--10-12-0---12----0-10-12-00---------12-10-12--12-00------------------|
                                      ..                      ..   
Riff 1
e|-------------------------------------------------------------------------------|
B|-------------------------------------------------------------------------------|
G|-------------------------------------------------------------------------------|
D|----------------------------------------------------------------------10-12b10-|
A|-----------------8-------------------8-10-8------------8-------8-10-12---------|
D|-----0--10-12-0---12----0-10-12-00----------12-10-12----12-00------------------|
                                  ..                         ..   
Riff 2
e|-----------------------------------------------------------------|
B|---------------------------------------------|||-----------------|
G|--------------------------------------(play  vvv the second time)|
D|-------------------------------666666666----10101010101010-------|
A|11-11-----888------544-------5-444444444 -5-8-8-8-8-8-8-8--------|
D|------000------000-----000---------------------------------------|

Riff 3
e|-------------------------------------------------------|
B|-------------------------------------------------------|
G|-------------------------------------------------------|
D|----------------------------------12-11-11-11-11-11-11-|
A|-11------8h11-------8h11----------12-11-11-11-11-11-11-|  
D|---0-0-0------0-0-0-------0-0-0---12-11-11-11-11-11-11-|

Riff 4
e|-----------------|
B|-----------------|
G|---10~~----------|
D|---10~~-10-12-0~~|
A|---8~~--10-12-0~~|
D|--------10-12-0~~|

Riff 5
e|-----------------------------------------------|
B|-----------------------------------------------|
G|-----10--------10----------10--------10--------|
D|-----10 (x4)---10 (x4)-----10 (x4)---10--0-0-0-|
A|-----8---------8-----------8---------8---0-0-0-|
D|---0--------0-0--------0-0---------0-----0-0-0-|



Riff 6 (play as chords this time around)
e|------------|
B|------------|
G|-10---------|
D|-10-10-12-0-|
A|-8--10-12-0-|
D|----10-12-0-|

Riff 7
e|-------------------------------------------------|
B|-------------------------------------------------|
G|-----10--------10----------10--------10-10-10-10-|
D|-----10 (x4)---10 (x4)-----10 (x4)---10-10-10-10-|
A|-----8---------8-----------8---------8--8--8--8--|
D|---0--------0-0--------0-0---------0-------------|

Riff 8
e|-------------------------------------------------------------|
B|-------------------------------------------------------------|
G|-------------------------------------------------------------|
D|--------------------------10-12-10----------------10~~-------|
A|-----------------8--------8--10-8-----------8-----8~~~--10~~-|
D|-----0--10-12-0---12---------------12-10-12---12--------10~~-|

Riff 9
e|------------------------------------------------------------|
B|------------------------------------------------------------|
G|------------------------------------------------------------|
D|--------------------------10-12-13----------------10~~------|
A|-----------------8--------8--10-11----------8-----8~~~-10~~-|
D|-----0--10-12-0---12---------------12-10-12---12-------10~~-|

Riff 10
e|-----------------------------------------------------------------------------|
B|-----------------------------------------------------------------------------|
G|-----------------------------------------------------------------------------|
D|------------------------------------10-12-10-----------------------10-12b-10-|
A|-----------------8--------------00--8--10-8----------8---00-8-10-12----------|
D|-----0--10-12-0---12----0-10-12-00----------12-10-12--12-00------------------|
       .                  .       ..                       ..
Riff 11
e|-----------------------------------------------------------------------------|
B|-----------------------------------------------------------------------------|
G|-----------------------------------------------------------------------------|
D|------------------------------------10-12-13----------------10---------------|
A|-----------------8--------------00--8--10-11---------8---00-8-10-12\---------|
D|-----0--10-12-0---12----0-10-12-00----------12-10-12--12-00---10-12\---------|
       .                  .       ..                       ..

Order:
Intro
Riff 1 (x4)
Riff 2
Riff 1 (x2)
Riff 2
Riff 3 (x4)
Riff 4 (x4)
Riff 5 
Riff 6 (x4)
Riff 7 
Riff 1 (x2)
Riff 2
Riff 3 (x4)
Riff 8
Riff 9
Riff 10
Riff 11

Enjoy!!
Tap to rate this tab
# A B C D E F G H I J K L M N O P Q R S T U V W X Y Z