Guitaretab - guitar tabs
Song name
# A B C D E F G H I J K L M N O P Q R S T U V W X Y Z

Every Time I Die - Ebolarama tab

#----------------------------------PLEASE NOTE---------------------------------#
#This file is the author's own work and represents their interpretation of the #
#song. You may only use this file for private study, scholarship, or research. #
#------------------------------------------------------------------------------##

                                    EBOLARAMA
                         As recorded by Every Time I Die
                         (From the 2003 Album HOT DAMN!)

Words by Keith Buckley

Music by Every Time I Die
Transcribed by Austin Mills

Gtr I (D A D G B E) - 'w/dist'
Gtr II (D A D G B E) - 'w/dist'
Gtr III (D A D G B E) - 'Pickscrape'

  Fast Hardcore Q=180
  N.C.
 4/4
  Gtr I
  PM----|   PM----|         PM----|   PM----|   PM|
  S S S S E S S S S E E E   S S S S E S S S S E S S E
|-------------------------|---------------------------|
|-------------------------|---------------------------|
|-------------------6-6-6-|---------------------------|
|-------------------x-x-x-|---------------------------|
|---------3---------4-4-4-|---------3---------4-----3-|
|-0-0-0-0-4-0-0-0-0-------|-0-0-0-0-4-0-0-0-0-5-0-0-4-|


                                                  2/4
  PM----|   PM----|         PM----|   PM|
  S S S S E S S S S E E E   S S S S E S S E E Q    E E Q
|-------------------------|----------------------|--------||
|-------------------------|----------------------|--------||
|-------------------6-6-6-|----------------------|--------||
|-------------------x-x-x-|----------------------|--------||
|---------3---------4-4-4-|---------3------------|--------||
|-0-0-0-0-4-0-0-0-0-------|-0-0-0-0-4-0-0-0-1h4--|-0-1h4--||


    N.C.
   4/4
    Gtrs I, II
    PM----|   PM----|         PM----|   PM----|   PM|
    S S S S E S S S S E E E   S S S S E S S S S E S S E
||--------------------------|---------------------------|
||o-------------------------|---------------------------|
||--------------------6-6-6-|---------------------------|
||--------------------x-x-x-|---------------------------|
||o---------3---------4-4-4-|---------3---------4-----3-|
||--0-0-0-0-4-0-0-0-0-------|-0-0-0-0-4-0-0-0-0-5-0-0-4-|


  PM----|   PM----|         PM----|   PM|
  S S S S E S S S S E E E   S S S S E S S E E Q
|-------------------------|----------------------|
|-------------------------|----------------------|
|-------------------6-6-6-|----------------------|
|-------------------x-x-x-|----------------------|
|---------3---------4-4-4-|---------3------------|
|-0-0-0-0-4-0-0-0-0-------|-0-0-0-0-4-0-0-0-1h4--|


  PM----|   PM----|         PM----|   PM----|   PM|
  S S S S E S S S S E E E   S S S S E S S S S E S S E
|-------------------------|---------------------------|
|-------------------------|---------------------------|
|-------------------6-6-6-|---------------------------|
|-------------------x-x-x-|---------------------------|
|---------3---------4-4-4-|---------3---------4-----3-|
|-0-0-0-0-4-0-0-0-0-------|-0-0-0-0-4-0-0-0-0-5-0-0-4-|


                                                  2/4
  PM----|   PM----|         PM----|   PM|
  S S S S E S S S S E E E   S S S S E S S E E Q    E E Q
|-------------------------|----------------------|---------||
|-------------------------|----------------------|--------o||
|-------------------6-6-6-|----------------------|---------||
|-------------------x-x-x-|----------------------|---------||
|---------3---------4-4-4-|---------3------------|--------o||
|-0-0-0-0-4-0-0-0-0-------|-0-0-0-0-4-0-0-0-1h4--|-0-1h4---||


    N.C.                      D5      N.C.               D5    N.C.
   4/4
    Gtr I
                              PM----|
    E E E E E E E E   E E E E S S S S Q    E E E E E E E E     E E Q  E E Q
||------------------|--------------------|-------------------|----------------||
||o-----------------|--------------------|-------------------|---------------o||
||--6-6-6-6-6-6-6-6-|-6-6-6-6------------|-6-6-6-6-6-6-6-6---|----------------||
||--x-x-x-x-x-x-x-x-|-x-x-x-x------------|-x-x-x-x-x-x-x-x---|----------------||
||o-4-4-4-4-4-4-4-4-|-4-4-4-4-0-0-0-0-3--|-4-4-4-4-4-4-4-4---|---------------o||
||------------------|---------0-0-0-0-4--|-------------------|-0-1h4--0-1h4---||
|
|   Gtr II
|                             PM----|                    PM|
|   E E E E E E E E   E E E E S S S S Q    E E E E E E E S S   E E Q  E E Q
||------------------|--------------------|-------------------|----------------||
||o-----------------|--------------------|-------------------|---------------o||
||--6-6-6-6-6-6-6-6-|-6-6-6-6------------|-6-6-6-6-6-6-6-----|----------------||
||--x-x-x-x-x-x-x-x-|-x-x-x-x------------|-x-x-x-x-x-x-x-----|----------------||
||o-4-4-4-4-4-4-4-4-|-4-4-4-4-0-0-0-0-3--|-4-4-4-4-4-4-4-0-0-|---------------o||
||------------------|---------0-0-0-0-4--|---------------0-0-|-0-1h4--0-1h4---||


   N.C.
   PM----|
   S S S S E E H         H           E E Q
||---------------------|--------------------|
||---------------------|--------------------|
||---------------------|--------------------|
||---------------------|--------------------|
||---------3-----------|--------------------|
||-0-0-0-0-4-0---------|-------------0-1h4--|
|
|  PM----|               PM----|
|  S S S S E E E E E E   S S S S E E E E Q
||---------------------|--------------------|
||---------------------|--------------------|
||---------------6-6-6-|--------------------|
||---------------x-x-x-|--------------------|
||---------3-----4-4-4-|---------3----------|
||-0-0-0-0-4-0---------|-0-0-0-0-4-0-0-1h4--|


                               D5
    PM  PM  PM                 PM--|
  E E E E E E  Q     H       E E E E
|------------------|------------------||
|------------------|------------------||
|------------------|------------------||
|------------------|------------------||
|-3---4---3--------|-----------0-0-0--||
|-4-0-5-0-4-0------|-----------0-0-0--||
|
|   PM  PM  PM           PM    PM--|
| E E E E E E  Q     E E E E E E E E
|------------------|------------------||
|------------------|------------------||
|------------------|------------------||
|-------------<4>--|------------------||
|-3---4---3--------|-4s5---4s5-0-0-0--||
|-4-0-5-0-4-0------|-5s6-0-5s6-0-0-0--||


  N.C. D5
  Gtrs I, II
       PM------------------------------|
   Q   S S E E E E E   E E E E S S E E E
|--------------------|-------------------|
|--------------------|-------------------|
|--------------------|-------------------|
|-<4>----------------|-------------------|
|------0-0-0-0-0-0-0-|-0-0-0-0-0-0-0-0-0-|
|------0-0-0-0-0-0-0-|-0-0-0-0-0-0-0-0-0-|


  N.C. D5
       PM------------------------------|
   Q   S S E E E E E   E E E E S S E E E
|--------------------|---------------------|
|--------------------|---------------------|
|--------------------|---------------------|
|-<4>----------------|---------------------|
|------0-0-0-0-0-0-0-|-0-0-0-0-0-0-0-0-0---|
|------0-0-0-0-0-0-0-|-0-0-0-0-0-0-0-0-0---|


  N.C.                         D5      N.C. D5            N.C. D5
    PM  PM  PM           PM    PM--|        PM--------|        PM--------|
  E E E E E E  Q     E E E E E E E E    Q   E E E E E E    Q   E E E E E E
|------------------|-----------------|------------------|-------------------||
|------------------|-----------------|------------------|-------------------||
|------------------|-----------------|------------------|-------------------||
|-------------<4>--|-----------------|-<4>--------------|-<4>---------------||
|-3---4---3--------|-4s5---4s5-0-0-0-|------0-0-0-0-0-0-|------0-0-0-0-0-0--||
|-4-0-5-0-4-0------|-5s6-0-5s6-0-0-0-|------0-0-0-0-0-0-|------0-0-0-0-0-0--||


  N.C.
  Gtr I
  PM----|
  S S S S E E H         W
|---------------------|--------------------|
|---------------------|--------------------|
|---------------------|--------------------|
|---------------------|--------------------|
|---------3-----------|--------------------|
|-0-0-0-0-4-0---------|--------------------|
|
| Gtr II
| PM----|               PM----|
| S S S S E E E E E E   S S S S E E E E Q
|---------------------|--------------------|
|---------------------|--------------------|
|---------------6-6-6-|--------------------|
|---------------x-x-x-|--------------------|
|---------3-----4-4-4-|---------3----------|
|-0-0-0-0-4-0---------|-0-0-0-0-4-0-0-1h4--|


  PM----|
  S S S S E E H         W
|---------------------|--------------------|
|---------------------|--------------------|
|---------------------|--------------------|
|---------------------|--------------------|
|---------3-----------|--------------------|
|-0-0-0-0-4-0---------|--------------------|
|
| PM----|               PM----|
| S S S S E E E E E E   S S S S E E E E Q
|---------------------|--------------------|
|---------------------|--------------------|
|---------------6-6-6-|--------------------|
|---------------x-x-x-|--------------------|
|---------3-----4-4-4-|---------3----------|
|-0-0-0-0-4-0---------|-0-0-0-0-4-0-0-1h4--|


  PM----|
  S S S S E E H         W
|---------------------|--------------------|
|---------------------|--------------------|
|---------------------|--------------------|
|---------------------|--------------------|
|---------3-----------|--------------------|
|-0-0-0-0-4-0---------|--------------------|
|
| PM----|               PM----|
| S S S S E E E E E E   S S S S E E E E Q
|---------------------|--------------------|
|---------------------|--------------------|
|---------------6-6-6-|--------------------|
|---------------x-x-x-|--------------------|
|---------3-----4-4-4-|---------3----------|
|-0-0-0-0-4-0---------|-0-0-0-0-4-0-0-1h4--|


                        Gtr III
  PM----|               TP                 TP
  S S S S E E H         W                  a
|---------------------|------------------------||
|---------------------|------------------------||
|---------------------|------------------------||
|---------------------|------------------------||
|---------3-----------|-xs=================x---||
|-0-0-0-0-4-0---------|-xs=================x---||
|
| PM----|               PM----|
| S S S S E E E E E E   S S S S E E E E Q
|---------------------|------------------------||
|---------------------|------------------------||
|---------------6-6-6-|------------------------||
|---------------x-x-x-|------------------------||
|---------3-----4-4-4-|---------3--------------||
|-0-0-0-0-4-0---------|-0-0-0-0-4-0-0-1h4------||


    N.C.
    Gtrs I, II
    E E E E E E E E   +E  E E E E E Q    E E E E E E E E   +E  E E E E E Q
||------------------|------------------|-----------------|-------------------||
||o-----------------|------------------|-----------------|------------------o||
||--6-6-6-6-6-6-6---|------------------|-6-6-6-6-6-6-6---|-------------------||
||--x-x-x-x-x-x-x---|------------------|-x-x-x-x-x-x-x---|-------------------||
||o-4-4-4-4-4-4-4---|------------------|-4-4-4-4-4-4-4---|------------------o||
||----------------3-|-(3)-0-3h4-0-1h4--|---------------3-|-(3)-0-3h4-0-1h4---||


    N.C.
    Gtr I
                              PM----|
    E E E E E E E E   E E E E S S S S Q
||------------------|--------------------|
||o-----------------|--------------------|
||--6-6-6-6-6-6-6-6-|-6-6-6-6------------|
||--x-x-x-x-x-x-x-x-|-x-x-x-x------------|
||o-4-4-4-4-4-4-4-4-|-4-4-4-4---------3--|
||------------------|---------0-0-0-0-4--|
|
|   Gtr II
|                             PM----|
|   E E E E E E E E   E E E E S S S S Q
||------------------|--------------------|
||o-----------------|--------------------|
||--6-6-6-6-6-6-6-6-|-6-6-6-6------------|
||--x-x-x-x-x-x-x-x-|-x-x-x-x------------|
||o-4-4-4-4-4-4-4-4-|-4-4-4-4---------3--|
||------------------|---------0-0-0-0-4--|


                D5    N.C.
  E E E E E E E E     E E Q  E E Q
|-------------------|------------------||
|-------------------|-----------------o||
|-6-6-6-6-6-6-6-6---|------------------||
|-x-x-x-x-x-x-x-x---|------------------||
|-4-4-4-4-4-4-4-4---|-----------------o||
|-------------------|-0-1h4--0-1h4-----||
|
|               PM|
| E E E E E E E S S   E E Q  E E Q
|-------------------|------------------||
|-------------------|-----------------o||
|-6-6-6-6-6-6-6-----|------------------||
|-x-x-x-x-x-x-x-----|------------------||
|-4-4-4-4-4-4-4-0-0-|-----------------o||
|---------------0-0-|-0-1h4--0-1h4-----||

[ Tab from: http://www.guitaretab.com/e/every-time-i-die/115309.html ]
  N.C.
  Gtr I
  PM----|
  S S S S E E H         W
|---------------------|--------------------|
|---------------------|--------------------|
|---------------------|--------------------|
|---------------------|--------------------|
|---------3-----------|--------------------|
|-0-0-0-0-4-0---------|--------------------|
|
| PM----|               PM----|
| S S S S E E E E E E   S S S S E E E E Q
|---------------------|--------------------|
|---------------------|--------------------|
|---------------6-6-6-|--------------------|
|---------------x-x-x-|--------------------|
|---------3-----4-4-4-|---------3----------|
|-0-0-0-0-4-0---------|-0-0-0-0-4-0-0-1h4--|


  PM----|
  S S S S E E H         W
|---------------------|--------------------|
|---------------------|--------------------|
|---------------------|--------------------|
|---------------------|--------------------|
|---------3-----------|--------------------|
|-0-0-0-0-4-0---------|--------------------|
|
| PM----|               PM----|
| S S S S E E E E E E   S S S S E E E E Q
|---------------------|--------------------|
|---------------------|--------------------|
|---------------6-6-6-|--------------------|
|---------------x-x-x-|--------------------|
|---------3-----4-4-4-|---------3----------|
|-0-0-0-0-4-0---------|-0-0-0-0-4-0-0-1h4--|


  PM----|
  S S S S E E H         H           E E Q
|---------------------|--------------------||
|---------------------|--------------------||
|---------------------|--------------------||
|---------------------|--------------------||
|---------3-----------|--------------------||
|-0-0-0-0-4-0---------|-------------0-1h4--||
|
| PM----|               PM----|
| S S S S E E E E E E   S S S S E E E E Q
|---------------------|--------------------||
|---------------------|--------------------||
|---------------6-6-6-|--------------------||
|---------------x-x-x-|--------------------||
|---------3-----4-4-4-|---------3----------||
|-0-0-0-0-4-0---------|-0-0-0-0-4-0-0-1h4--||


  D5      N.D5       D5      N.D5
  Gtrs I, II
  PM----|            PM----|
  S S S S E E H      S S S S E E E E Q
|------------------|--------------------|
|------------------|--------------------|
|------------------|--------------------|
|------------------|--------------------|
|-0-0-0-0-3-0------|-0-0-0-0-3-0--------|
|-0-0-0-0-4-0------|-0-0-0-0-4-0-0-1h4--|


  D5      N.D5       D5      N.D5N.C.
  PM----|            PM----|
  S S S S E E H      S S S S E E E E Q
|------------------|--------------------|
|------------------|--------------------|
|------------------|--------------------|
|------------------|--------------------|
|-0-0-0-0-3-0------|-0-0-0-0-3-0--------|
|-0-0-0-0-4-0------|-0-0-0-0-4-0-0-1h4--|


    D5      N.D5       D5      N.D5N.C.
    PM----|            PM----|
    S S S S E E H      S S S S E E E E Q
||-------------------|--------------------|
||o------------------|--------------------|
||-------------------|--------------------|
||-------------------|--------------------|
||o-0-0-0-0-3-0------|-0-0-0-0-3-0--------|
||--0-0-0-0-4-0------|-0-0-0-0-4-0-0-1h4--|


  N.C. D5            N.C. D5
       PM--------|        PM--------|
   Q   E E E E E E    Q   E E E E E E
|------------------|--------------------||
|------------------|-------------------o||
|-<4>--------------|--------------------||
|------------------|-<4>----------------||
|------0-0-0-0-0-0-|------0-0-0-0-0-0--o||
|------0-0-0-0-0-0-|------0-0-0-0-0-0---||


  N.C. D5            N.C. D5
       PM--------|        PM--------|
   Q   E E E E E E    Q   E E E E E E   W
|------------------|------------------|------||
|------------------|------------------|------||
|-<4>--------------|-<4>--------------|------||
|------------------|------------------|------||
|------0-0-0-0-0-0-|------0-0-0-0-0-0-|------||
|------0-0-0-0-0-0-|------0-0-0-0-0-0-|------||


  N.C.                         D5      N.C.                         D5
  Gtr II
    PM  PM  PM           PM    PM--|     PM  PM  PM           PM    PM--|
  E E E E E E  Q     E E E E E E E E   E E E E E E  Q     E E E E E E E E
|------------------|-----------------|------------------|------------------|
|------------------|-----------------|------------------|------------------|
|------------------|-----------------|------------------|------------------|
|-------------<4>--|-----------------|-------------<4>--|------------------|
|-3---4---3--------|-4s5---4s5-0-0-0-|-3---4---3--------|-4s5---4s5-0-0-0--|
|-4-0-5-0-4-0------|-5s6-0-5s6-0-0-0-|-4-0-5-0-4-0------|-5s6-0-5s6-0-0-0--|


  N.C.                         D5      N.C.
  Gtr I
  W                  W                 W                  Q.     E   H
|------------------|-----------------|------------------|------------------||
|------------------|-----------------|------------------|------------------||
|------------------|-----------------|------------------|-------<4>-<4>----||
|------------------|-----------------|------------------|------------------||
|------------------|-----------------|------------------|------------------||
|------------------|-----------------|------------------|------------------||
|
| Gtr II
|   PM  PM  PM           PM    PM--|     PM  PM  PM           PM
| E E E E E E  Q     E E E E E E E E   E E E E E E  Q     E E E  E   H
|------------------|-----------------|------------------|------------------||
|------------------|-----------------|------------------|------------------||
|------------------|-----------------|------------------|-------<4>-<4>----||
|-------------<4>--|-----------------|-------------<4>--|------------------||
|-3---4---3--------|-4s5---4s5-0-0-0-|-3---4---3--------|-4s5--------------||
|-4-0-5-0-4-0------|-5s6-0-5s6-0-0-0-|-4-0-5-0-4-0------|-5s6-0------------||


  D5    N.C.                         D5
  Gtrs I, II
    PM|   PM|   PM           PM    PM----|
  E S S E S S E E  Q     E E E E E E S S E
|----------------------|-------------------|
|----------------------|-------------------|
|----------------------|-------------------|
|-----------------<4>--|-------------------|
|-0-----3-----4--------|-3s4---3s4---0-0-0-|
|-0-0-0-4-0-0-5-0------|-4s5-0-4s5-0-0-0-0-|


        N.C.                         D5
    PM|   PM|   PM           PM    PM----|
  E S S E S S E E  Q     E E E E E E S S E
|----------------------|-------------------|
|----------------------|-------------------|
|----------------------|-------------------|
|-----------------<4>--|-------------------|
|-0-----3-----4--------|-3s4---3s4---0-0-0-|
|-0-0-0-4-0-0-5-0------|-4s5-0-4s5-0-0-0-0-|


        N.C.                         D5
    PM|   PM|   PM           PM    PM----|
  E S S E S S E E  Q     E E E E E E S S E
|----------------------|-------------------|
|----------------------|-------------------|
|----------------------|-------------------|
|-----------------<4>--|-------------------|
|-0-----3-----4--------|-3s4---3s4---0-0-0-|
|-0-0-0-4-0-0-5-0------|-4s5-0-4s5-0-0-0-0-|


        N.C.                       D5
    PM|   PM|   PM           PM    PM--|
  E S S E S S E E  Q     E E E E E E E E
|----------------------|------------------||
|----------------------|------------------||
|----------------------|------------------||
|-----------------<4>--|------------------||
|-0-----3-----4--------|-3s4---3s4-0-0-0--||
|-0-0-0-4-0-0-5-0------|-4s5-0-4s5-0-0-0--||


  N.C.
  Gtrs I, II
                                                                PM----|
  E E E E E E E E   E E E E E E E E   E E E E E E E E   E E E E S S S S Q
|-----------------|-----------------|-----------------|---------------------|
|-----------------|-----------------|-----------------|---------------------|
|-6-6-6-6-6-6-6-6-|-6-6-6-6-6-6-6-6-|-6-6-6-6-6-6-6-6-|-6-6-6-6-------------|
|-x-x-x-x-x-x-x-x-|-x-x-x-x-x-x-x-x-|-x-x-x-x-x-x-x-x-|-x-x-x-x-------------|
|-4-4-4-4-4-4-4-4-|-4-4-4-4-4-4-4-4-|-4-4-4-4-4-4-4-4-|-4-4-4-4---------3---|
|-----------------|-----------------|-----------------|---------0-0-0-0-4---|


                                                               PM----|
  E E E E E E E E   E E E E E E Q    E E E E E E E E   E E E E S S S S Q
|-----------------|----------------|-----------------|---------------------|
|-----------------|----------------|-----------------|---------------------|
|-6-6-6-6-6-6-6-6-|-6-6-6-6--------|-6-6-6-6-6-6-6-6-|-6-6-6-6-------------|
|-x-x-x-x-x-x-x-x-|-x-x-x-x--------|-x-x-x-x-x-x-x-x-|-x-x-x-x-------------|
|-4-4-4-4-4-4-4-4-|-4-4-4-4--------|-4-4-4-4-4-4-4-4-|-4-4-4-4---------3---|
|-----------------|---------0-1h4--|-----------------|---------0-0-0-0-4---|


  E E E E E E E E   E E Q  E E Q
|-----------------|---------------||
|-----------------|---------------||
|-6-6-6-6-6-6-6-6-|---------------||
|-x-x-x-x-x-x-x-x-|---------------||
|-4-4-4-4-4-4-4-4-|---------------||
|-----------------|-0-1h4--0-1h4--||


    N.C.
   3/4
    Gtrs I, II
    E E E E E E   E E E E E E   E E E E E E   E E E E E E
||--------------|-------------|-------------|---------------||
||o-------------|-------------|-------------|--------------o||
||--6-6-6-6-6---|-6-6-6-6-6---|-6-6-6-6-6---|-6-6-6-6-6-----||
||--x-x-x-x-x---|-x-x-x-x-x---|-x-x-x-x-x---|-x-x-x-x-x-----||
||o-4-4-4-4-4---|-4-4-4-4-4---|-4-4-4-4-4---|-4-4-4-4-4----o||
||--------------|-------------|-------------|---------------||


    N.C.
   4/4
    Gtrs I, II
    E E E E E Q.     E E E E E E Q    E E E E E Q.     H    E E Q
||-----------------|----------------|----------------|--------------|
||o----------------|----------------|----------------|--------------|
||--6-6-6-6-6------|----------------|-6-6-6-6-6------|--------------|
||--x-x-x-x-x------|----------------|-x-x-x-x-x------|--------------|
||o-4-4-4-4-4------|---3-3---3-3----|-4-4-4-4-4------|--------------|
||-----------------|---4-4---4-4----|----------------|------0-1h4---|


  E E E E E Q.     E E E E E E Q    E E E E E Q.     E E Q  E E Q
|----------------|----------------|----------------|-----------------||
|----------------|----------------|----------------|----------------o||
|-6-6-6-6-6------|----------------|-6-6-6-6-6------|-----------------||
|-x-x-x-x-x------|----------------|-x-x-x-x-x------|-----------------||
|-4-4-4-4-4------|---3-3---3-3----|-4-4-4-4-4------|----------------o||
|----------------|---4-4---4-4----|----------------|-0-1h4--0-1h4----||


 3/4
  E E E E E E   E E E E E E   E E E E E E   E E E E E E
|-------------|-------------|-------------|-------------*|
|-------------|-------------|-------------|-------------*|
|-6-6-6-6-6---|-6-6-6-6-6---|-6-6-6-6-6---|-6-6-6-6-6---*|
|-x-x-x-x-x---|-x-x-x-x-x---|-x-x-x-x-x---|-x-x-x-x-x---*|
|-4-4-4-4-4---|-4-4-4-4-4---|-4-4-4-4-4---|-4-4-4-4-4---*|
|-------------|-------------|-------------|-------------*|


Duration Legend
---------------
W - whole; H - half; Q - quarter; E - 8th; S - 16th; T - 32nd; X - 64th; a - acciaccatura
+ - note tied to previous; . - note dotted; .. - note double dotted
Uncapitalized letters represent notes that are staccato (1/2 duration)
Irregular groupings are notated above the duration line
Duration letters will always appear directly above the note/fret number it represents the
duration for.  Duration letters with no fret number below them represent rests.  Multi-
bar rests are notated in the form Wxn, where n is the number of bars to rest for.  Low
melody durations appear below the staff

Tablature Legend
----------------
 h   - hammer-on
 p   - pull-off
 b   - bend
 pb  - pre-bend
 r   - bend release (if no number after the r, then release immediately)
 /\  - slide into or out of (from/to "nowhere")
 s   - legato slide
 S   - shift slide
  - natural harmonic
[n]  - artificial harmonic
n(n) - tapped harmonic
 ~   - vibrato
 tr  - trill
 T   - tap
 TP  - trem. picking
 PM  - palm muting
\n/  - tremolo bar dip; n = amount to dip
 \n  - tremolo bar down
 n/  - tremolo bar up
/n\  - tremolo bar inverted dip
 =   - hold bend; also acts as connecting device for hammers/pulls
 <>  - volume swell (louder/softer)
 x   - on rhythm slash represents muted slash
 o   - on rhythm slash represents single note slash

Misc Legend
-----------
 |  - bar
||  - double bar
||o - repeat start
o|| - repeat end
*|  - double bar (ending)
 :  - bar (freetime)
 $  - Segno
 &  - Coda
Tempo markers -  = BPM(8/16=s8/s16), where s8 = swing 8ths, s16 = swing 16ths


***************************************************************************************
* Generated using Power Tab Editor by Brad Larsen - http://powertab.guitarnetwork.org *
***************************************************************************************
Related for Ebolarama tab
Ebolarama chords by Every Time I Die