Song name
# A B C D E F G H I J K L M N O P Q R S T U V W X Y Z

Every Time I Die - Wanderlust tab


---------------------------------------------------------|
---------------------------------------------------------|
---------------------------------------------------------|
-777-5-88-777-5-88-777-5-88-777-5-88-555-3-66------------|
-555-3-66-555-3-66-555-3-66-555-3-66-555-3-66------------|
-------------------------------------555-3-66------------|

-----------------------------------------------------------------------|
-----------------------------------------------------------------------|
-----------------------------------------------------------------------|
------------------------------------------3p0-----------------888-555--|
--------------------------------------3h5-----5p3-3h5-5p3-3h5-888-555--|
-5h7-7777777-5h7-7777777-5h7-7777777--------------------------888-555--|

---------------------------------------------------------|
---------------------------------------------------------|
---------------------------------------------------------|
------------------------------------------3p0------------|
--------------------------------------3h5-----5p3--------|
-5h7-7777777-5h7-7777777-5h7-7777777---------------------|

---------------------------------------------------------|
---------------------------------------------------------|
---------------------------------------------------------|
-------------------------------------------------888-5---|
-------------------------------------------------888-5---|
-5h7-7777777-5h7-7777777-5h7-7777777-5h7-7777777-888-5---|

---------------------------------------------------------|
---------------------------------------------------------|
---------------------------------------------------------|
------------------------------------------3p0------------|
--------------------------------------3h5-----5p3--------|
-5h7-7777777-5h7-7777777-5h7-7777777---------------------|

--------------------------------------------------------------------|
--------------------------------------------------------------------|
--------------------------------------------------------------------|
-------------------------------------------------888-555~-3~6~------|
-------------------------------------------------888-555~-3~6~------|
-5h7-7777777-5h7-7777777-5h7-7777777-5h7-7777777-888-555~-3~6~------|

---------------------------------------------------------|
---------------------------------------------------------|
---------------------------------------------------------|
------------------------------------------3p0------------|
--------------------------------------3h5-----5p3--------|
-5h7-7777777-5h7-7777777-5h7-7777777---------------------|

-----------------------------------------------------------|
-----------------------------------------------------------|
-----------------------------------------------------------|
-------------------------------------------------888-5-----|
-------------------------------------------------888-5-----|
-5h7-7777777-5h7-7777777-5h7-7777777-5h7-7777777-888-5-----|

---------------------------------------------------------|
---------------------------------------------------------|
---------------------------------------------------------|
------------------------------------------3p0------------|
--------------------------------------3h5-----5p3--------|
-5h7-7777777-5h7-7777777-5h7-7777777---------------------|

--------------------------------------------------------------------|
--------------------------------------------------------------------|
--------------------------------------------------------------------|
-------------------------------------------------888-555~-33-66-----|
-------------------------------------------------888-555~-33-66-----|
-5h7-7777777-5h7-7777777-5h7-7777777-5h7-7777777-888-555~-33-66-----|

---------------------------------------------------------|
---------------------------------------------------------|
---------------------------------------------------------|
-5/77777777-5/77777777-5/77777777-777-5-888--------------|
-3/55555555-3/55555555-3/55555555-555-3-666--------------|
---------------------------------------------------------|

---------------------------------------------------------|
---------------------------------------------------------|
---------------------------------------------------------|
-5/77777777-5/77777777-5/77777777-777-5-888--------------|
-3/55555555-3/55555555-3/55555555-555-3-666--------------|
---------------------------------------------------------|

---------------------------------------------------------|
---------------------------------------------------------|
---------------------------------------------------------|
--------------------------------------------3------------|
--------------------------------------------1------------|
-3h5-0-3h5-0-3h5-0-3h5-0-3h5-0-3h5-0-3h5-0---------------|

-------------------------------------------------------|
-------------------------------------------------------|
-------------------------------------------------------|
--------------------------------------------555-3-66---|
--------------------------------------------555-3-66---|
-3h5-0-3h5-0-3h5-0-3h5-0-3h5-0-3h5-0-3h5-0--555-3-66---|

---------------------------------------------------------|
---------------------------------------------------------|
---------------------------------------------------------|
--------------------------------------------3------------|
--------------------------------------------1------------|
-3h5-0-3h5-0-3h5-0-3h5-0-3h5-0-3h5-0-3h5-0---------------|

---------------------------------------------------------------|
---------------------------------------------------------------|
---------------------------------------------------------------|
-------------------------------------------777-5-88-555-3-66---|
-------------------------------------------555-3-66-555-3-66---|
-3h5-0-3h5-0-3h5-0-3h5-0-3h5-0-3h5-0-3h5-0----------555-3-66---|

-----------------------------------------------------------------------|
-----------------------------------------------------------------------|
-----------------------------------------------------------------------|
------------------------------------------3p0-----------------888-555--|
--------------------------------------3h5-----5p3-3h5-5p3-3h5-888-555--|
-5h7-7777777-5h7-7777777-5h7-7777777--------------------------888-555--|

---------------------------------------------------------|
---------------------------------------------------------|
---------------------------------------------------------|
-----3p0-----------------888-555-------------------------|
-3h5-----5p3-3h5-5p3-3h5-888-555-------------------------|
-------------------------888-555-------------------------|

---------------------------------------------------------|
---------------------------------------------------------|
---------------------------------------------------------|
------------------------------------------3p0------------|
--------------------------------------3h5-----5p3--------|
-5h7-7777777-5h7-7777777-5h7-7777777---------------------|

---------------------------------------------------------|
---------------------------------------------------------|
---------------------------------------------------------|
-------------------------------------------------888-5---|
-------------------------------------------------888-5---|
-5h7-7777777-5h7-7777777-5h7-7777777-5h7-7777777-888-5---|

---------------------------------------------------------|
---------------------------------------------------------|
---------------------------------------------------------|
------------------------------------------3p0------------|
--------------------------------------3h5-----5p3--------|
-5h7-7777777-5h7-7777777-5h7-7777777---------------------|

--------------------------------------------------------------------|
--------------------------------------------------------------------|
--------------------------------------------------------------------|
-------------------------------------------------888-555~-----------|
-------------------------------------------------888-555~-----------|
-5h7-7777777-5h7-7777777-5h7-7777777-5h7-7777777-888-555~-3b~6b~----|

-----------|
-----------|
-----------|
-888-555---|
-888-555---|
-888-555---|

-----------|
-----------|
-----------|
-888-555---|
-888-555---|
-888-555---|

------------------------------------------------------------------------|
------------------------------------------------------------------------|
------------------------------------------------------------------------|
------------------------------------------3p0-----------------888-555~--|
--------------------------------------3h5-----5p3-3h5-5p3-3h5-888-555~--|
-5h7-7777777-5h7-7777777-5h7-7777777--------------------------888-555~--|

---------------------------------------------------------|
---------------------------------------------------------|
---------------------------------------------------------|
-5/77777777-5/77777777-5/77777777-777-5-888--------------|
-3/55555555-3/55555555-3/55555555-555-3-666--------------|
---------------------------------------------------------|

---------------------------------------------------------|
---------------------------------------------------------|
---------------------------------------------------------|
-5/77777777-5/77777777-5/77777777-777-5-888--------------|
-3/55555555-3/55555555-3/55555555-555-3-666--------------|
---------------------------------------------------------|

---------------------------------------------------------|
---------------------------------------------------------|
---------------------------------------------------------|
--------------------------------------------3------------|
--------------------------------------------1------------|
-3h5-0-3h5-0-3h5-0-3h5-0-3h5-0-3h5-0-3h5-0---------------|

-------------------------------------------------------|
-------------------------------------------------------|
-------------------------------------------------------|
--------------------------------------------555-3-66---|
--------------------------------------------555-3-66---|
-3h5-0-3h5-0-3h5-0-3h5-0-3h5-0-3h5-0-3h5-0--555-3-66---|

---------------------------------------------------------|
---------------------------------------------------------|
---------------------------------------------------------|
--------------------------------------------3------------|
--------------------------------------------1------------|
-3h5-0-3h5-0-3h5-0-3h5-0-3h5-0-3h5-0-3h5-0---------------|

-----------------------------------------------------------------------|
-----------------------------------------------------------------------|
-----------------------------------------------------------------------|
--------------------------------------------777-5-88-777-5-88-777-5-88-|
--------------------------------------------555-3-66-555-3-66-555-3-66-|
-3h5-0-3h5-0-3h5-0-3h5-0-3h5-0-3h5-0-3h5-0-----------------------------|

--------------------------------------------------------------------|
--------------------------------------------------------------------|
--------------------------------------------------------------------|
-555-3-66-5~3~---------------3-3---3-3---------------3-3---3-3------|
-555-3-66-5~3~---------------1-1---1-1---------------1-1---1-1------|
-555-3-66-5~3~6b-3h5-0-3h5-0-----0-----0-3h5-0-3h5-0-----0-----0----|

-----------------------------------------------|
-----------------------------------------------|
-----------------------------------------------|
-7-5-8-5-3-6-----1~-11~-11~-11~----------------|
-5-3-6-5-3-6-----1~-11~-11~-11~----------------|
-------5-3-6--8b-1~-11~-11~-11~----------------|

--------------------------------------------------|
--------------------------------------------------|
--------------------------------------------------|
------------3-3---3-3---------------3-3---3-3-----|
------------1-1---1-1---------------1-1---1-1-----|
3h5-0-3h5-0-----0-----0-3h5-0-3h5-0-----0-----0---|

-----------------------------------------------|
-----------------------------------------------|
-----------------------------------------------|
-7-5-8-5-3-6-----1~-11~-11~-11~----------------|
-5-3-6-5-3-6-----1~-11~-11~-11~----------------|
-------5-3-6--8b-1~-11~-11~-11~----------------|

-----------------------|
-----------------------|
-----------------------|
------------3-3---3-3~-|
------------1-1---1-1~-|
3h5-0-3h5-0-----0------|

---------------------------------------------------------|
---------------------------------------------------------|
---------------------------------------------------------|
-------------3-0000000000-----------3-0000000000---------|
-------------1-0000000000-----------1-0000000000---------|
-3h5-0-3h5-0---0000000000-3h5-0-3h5---0000000000---------|

---------------------------------------------------------|
---------------------------------------------------------|
---------------------------------------------------------|
-------------3-0000000000-----------3-3---3-3~-----------|
-------------1-0000000000-----------1-1---1-1~-----------|
-3h5-0-3h5-0---0000000000-3h5-0-3h5-----0----------------|

---------------------------------------------------------|
---------------------------------------------------------|
---------------------------------------------------------|
-------------3-0000000000-----------3-0000000000---------|
-------------1-0000000000-----------1-0000000000---------|
-3h5-0-3h5-0---0000000000-3h5-0-3h5---0000000000---------|

---------------------------------------------------------|
---------------------------------------------------------|
---------------------------------------------------------|
-------------3-0000000000-----------3-3---3-3~-----------|
-------------1-0000000000-----------1-1---1-1~-----------|
-3h5-0-3h5-0---0000000000-3h5-0-3h5-----0----------------|

----------------------------------------------------------|
----------------------------------------------------------|
----------------------------------------------------------|
-------------3-0000000000-----------3-0000000000----------|
-------------1-0000000000-----------1-0000000000----------|
-3h5-0-3h5-0---0000000000-3h5-0-3h5---0000000000----------|

----------------------------------------------------------|
----------------------------------------------------------|
----------------------------------------------------------|
-------------3-0000000000-----------3-3---00~-------------|
-------------1-0000000000-----------1-1---00~-------------|
-3h5-0-3h5-0---0000000000-3h5-0-3h5-----0-00~-------------|
Tap to rate this tab
# A B C D E F G H I J K L M N O P Q R S T U V W X Y Z