Song name
# A B C D E F G H I J K L M N O P Q R S T U V W X Y Z

Every Time I Die - Turtles All The Way Down tab

Every Time I Die
Turtles All The Way Down
Transcribed by Jweber

This is my first tab so I'm open to suggestions. But this sounded close to the song for me

Tuning- DADGBE


E||--------------------|
B||--------------------|
G||--------------------|   x4
D||--8~--6~--8~--6-7-8-|
A||--8~--6~--8~--6-7-8-|
D||--8~--6~--8~--6-7-8-|


--------------------------|
--------------------------|
--------------------------|   x6
-8-8-8-6-8-8-6-8-8-x-x-x-x|
-8-8-8-6-8-8-6-8-8-x-x-x-x|
-8-8-8-6-8-8-6-8-8-x-x-x-x|


-----------------------|---------------------------|
-----------------------|---------------------------|
--------------------6-6|--------------------------6|
-8-6-7-8-6-7-8-6-7-8---|-8-6-7-8-6-7-8-6-7-8-------|
-8-6-7-8-6-7-8-6-7-8---|-8-6-7-8-6-7-8-6-7-8-6h7h8-|
-8-6-7-8-6-7-8-6-7-8---|-8-6-7-8-6-7-8-6-7-8-------|


------------------------|-----------------------------| The end of this 
------------------------|-----------------------------| part I just mute the
--------------------6-8b|-----------------------------| notes and slide down
-8-6-7-8-6-7-8-6-7-8----|-8-6-7-8-6-7-8-6-7-8--x\-----| while strumming fast
-8-6-7-8-6-7-8-6-7-8----|-8-6-7-8-6-7-8-6-7-8--x\-----| it sounds close 
-8-6-7-8-6-7-8-6-7-8----|-8-6-7-8-6-7-8-6-7-8--x\-----| enough to me


-------------------------------------|
-------------------------------------|
-------------------------------------|
-------------------------------------|
-------------------------------------|
-33-11-22-33-11-22-33-11-22-33-11-22-|


-------------------------------------|
-------------------------------------|
-------------------------------------|
-------------------------------------|
-------------------------------------|
-88-66-77-88-66-77-88-66-77-88-66-77-|


-x-x-x-x-x-x-|
-x-x-x-x-x-x-|
-x-x-x-x-x-x-|  x3
-x-x-x-x-x-x-|
-x-x-x-x-x-x-|
-x-x-x-x-x-x-|


--------------------------|
--------------------------|
--------------------------|   x4
-8-8-8-6-8-8-6-8-8-x-x-x-x|
-8-8-8-6-8-8-6-8-8-x-x-x-x|
-8-8-8-6-8-8-6-8-8-x-x-x-x|


-----------------------|---------------------------|
-----------------------|---------------------------|
--------------------6-6|--------------------------6|
-8-6-7-8-6-7-8-6-7-8---|-8-6-7-8-6-7-8-6-7-8-------|
-8-6-7-8-6-7-8-6-7-8---|-8-6-7-8-6-7-8-6-7-8-6h7h8-|
-8-6-7-8-6-7-8-6-7-8---|-8-6-7-8-6-7-8-6-7-8-------|


-----------------------------|-----------------------------|  
-----------------------------|-----------------------------| 
--------------------6-8h9p8h9|-----------------------------|
-8-6-7-8-6-7-8-6-7-8---------|-8-6-7-8-6-7-8-6-7-8--x\-----|
-8-6-7-8-6-7-8-6-7-8---------|-8-6-7-8-6-7-8-6-7-8--x\-----| 
-8-6-7-8-6-7-8-6-7-8---------|-8-6-7-8-6-7-8-6-7-8--x\-----|


-------------------------------------|
-------------------------------------|
-------------------------------------|
-------------------------------------|
-------------------------------------|
-33-11-22-33-11-22-33-11-22-33-11-22-|


-------------------------------------|
-------------------------------------|
-------------------------------------|
-------------------------------------|
-------------------------------------|
-88-66-77-88-66-77-88-66-77-88-66-77-|


-------------|
-------------|
-------------|
-8-6-7-8-6-7-|
-8-6-7-8-6-7-|
-8-6-7-8-6-7-|


--------------------|
--------------------|
--------------------|   x4
--8~--6~--8~--6-7-8-|
--8~--6~--8~--6-7-8-|
--8~--6~--8~--6-7-8-|


--------------------------|
--------------------------|
--------------------------|   x3
-8-8-8-6-8-8-6-8-8-x-x-x-x|
-8-8-8-6-8-8-6-8-8-x-x-x-x|
-8-8-8-6-8-8-6-8-8-x-x-x-x|
Tap to rate this tab
 
# A B C D E F G H I J K L M N O P Q R S T U V W X Y Z