Song name
# A B C D E F G H I J K L M N O P Q R S T U V W X Y Z

Every Time I Die - Roman Holiday tab

Artist: Every Time I Die
Song: Roman Holiday
Album: New Junk Aesthetic
Transcribed by: Brandon Yates (UG Forum - ThisFireBurns22)
Date: September 19, 2009

This is a very easy and basic song, but still heavy as balls.  Enjoy!

-----------------------------------------------------------------------------
Roman Holiday
-----------------------------------------------------------------------------

Tuning(Drop D): DADGBE

Intro (0:12-0:41)
E|---------------------------------|
B|---------------------------------|
G|---------------------------------|
D|---------------------------------| 
A|---------------------------------|
D|-4-4-4-4-4-4-4-4---4-4-4-4-4-4-4-|

E|---------------------------------|
B|---------------------------------|
G|---------------------------------|
D|---------------------------------| 
A|---------------------------------|
D|-4-4-4-4-4-4-4-4---4-4-4-4-4-4-1-|


E|---------------------------------|
B|---------------------------------|
G|---------------------------------|
D|---------------------------------|
A|---------------------------------|
D|-0-0-0-0-0-0-0-0---0-0-0-0-0-0-0-|

E|-------------------------------------|
B|-------------------------------------|
G|-------------------------------------|
D|-------------------------------------|
A|-------------------------------------|
D|-0-0-0-0-0-0-0-0---0-0-0-14-13-16-0--|

E|---------------------------------|
B|---------------------------------|
G|---------------------------------|
D|---------------------------------| 
A|---------------------------------|
D|-4-4-4-4-4-4-4-4---4-4-4-4-4-4-4-|

E|---------------------------------|
B|---------------------------------|
G|---------------------------------|
D|---------------------------------| 
A|---------------------------------|
D|-4-4-4-4-4-4-4-4---4-4-4-4-4-4-1-|

E|----|
B|----|
G|----|
D|----|
A|-0--|
D|-0--|


Verse (0:42-1:16)
E|---------------------------------|
B|---------------------------------|
G|---------------------------------|
D|---------------------------------| 
A|-4-4-4-4-4-4-4-4---4-4-4-4-4-4-4-|
D|-4-4-4-4-4-4-4-4---4-4-4-4-4-4-4-|

E|---------------------------------|
B|---------------------------------|
G|---------------------------------|
D|---------------------------------| 
A|-4-4-4-4-4-4-4-4---4-4-4-4-4-4-1-|
D|-4-4-4-4-4-4-4-4---4-4-4-4-4-4-1-|


E|---------------------------------|
B|---------------------------------|
G|---------------------------------|
D|---------------------------------|
A|-0-0-0-0-0-0-0-0---0-0-0-0-0-0-0-|
D|-0-0-0-0-0-0-0-0---0-0-0-0-0-0-0-|

E|-------------------------------------|
B|-------------------------------------|
G|-------------------------------------|
D|-------------------------------------|
A|-0-0-0-0-0-0-0-0---0-0-0-14-13-16-0--| x2
D|-0-0-0-0-0-0-0-0---0-0-0-14-13-16-0--|


Chorus (1:17-1:34)
E|------------------------------|
B|------------------------------|
G|------------------------------|
D|-4----1--0--------------------| x4
A|-4----1--0--------14-13-16-0--|
D|-4----1--0--------14-13-16-0--|

Repeat Verse
Repeat Chorus


Lyrics:
We cut our teeth in the bedroom.
We slit our wrists in our costumes.
All of them, witches. Witches,
Witches, Witches.
We are the death of the party.
We are the life of the funeral.
All of us, Ragmen.  Ragmen, 
Ragmen, Ragmen.
I want the rippened fruit.
I want the fresh meat.
I want the first born.
I want the down beat.
We traded vows on the front line.
They ushered us through the stop sign.
All of them, witches. Witches,
Witches, Witches.
We found our way in the blackout.
We are the ghosts of the lighthouse.
All of us, Ragmen.  Ragmen, 
Ragmen, Ragmen.
I want the open wound.
I want the dark street.
I want the virgin blood.
I want the wet heat.
Tap to rate this tab
# A B C D E F G H I J K L M N O P Q R S T U V W X Y Z