Song name
# A B C D E F G H I J K L M N O P Q R S T U V W X Y Z

Every Time I Die - Roman Holiday tab

-------------------------------------------------------------------------------
			     Roman Holiday - Every Time I Die
-------------------------------------------------------------------------------
Tabbed by: deathbynoise


Tuning:Drop D

e|---------------------------------------------------------------------------|
B|---------------------------------------------------------------------------|
G|---------------------------------------------------------------------------|
D|-4-4-4-4-4-4-4-4---4-4-4-4-4-4-4--4-4-4-4-4-4-4------4-4-4-4-4-4-4-4-------|
A|-4-4-4-4-4-4-4-4---4-4-4-4-4-4-4--4-4-4-4-4-4-4------4-4-4-4-4-4-4-4-------|
D|-4-4-4-4-4-4-4-4---4-4-4-4-4-4-4--4-4-4-4-4-4-4------4-4-4-4-4-4-4-4-------|

e|---------------------------------------------------------------------------|
B|---------------------------------------------------------------------------|
G|---------------------------------------------------------------------------|
D|-1----0-0-0-0-0-0-0-0------------------------------------------------------|
A|-1----0-0-0-0-0-0-0-0------------------------------------------------------|
E|-1----0-0-0-0-0-0-0-0------------------------------------------------------|

1:19
x2
e|---------------------------------------------------------------------------|
B|---------------------------------------------------------------------------|
G|---------------------------------------------------------------------------|
D|--4---1--0------------------4---1--0---------------------------------------|
A|--4---1--0------------------4---1--0---------------------------------------|
D|--4---1--0--0-1-0-4-1-0-----4---1--0---------------------------------------|



| /  slide up
| \  slide down
| h  hammer-on
| p  pull-off
| ~  vibrato
| +  harmonic
| x  Mute note
===============================================================================
Tap to rate this tab
 
# A B C D E F G H I J K L M N O P Q R S T U V W X Y Z