Song name
# A B C D E F G H I J K L M N O P Q R S T U V W X Y Z

Every Time I Die - Buffalo 666 tab

Every Time I Die
Buffalo 666
Tuning:Drop D

I know this song isn't 100 percent.So here it is.

------------------------------------------------------------------------|
------------------------------------------------------------------------|
------------------------------------------------------------------------|
-9-9-9-9-9-9-9-9--3-7-6-3-7-6-3-7-6-10-9-8-3-7-6-3-7-6-3-7-6-10-9-8-----|
-9-9-9-9-9-9-9-9--3-7-6-3-7-6-3-7-6-10-9-8-3-7-6-3-7-6-3-7-6-10-9-8-----|
-9-9-9-9-9-9-9-9--3-7-6-3-7-6-3-7-6-10-9-8-3-7-6-3-7-6-3-7-6-10-9-8-----|

--------------------------------------------------------|
--------------------------------------------------------|
--------------------------------------------------------|
-3-7-6--------3-7-6--------3-7-6--------3-7-6-----------|
-3-7-6-000000-3-7-6-000000-3-7-6-000000-3-7-6-000000----|
-3-7-6-000000-3-7-6-000000-3-7-6-000000-3-7-6-000000----|

--------------------------------------------------|
--------------------------------------------------|
--------------------------------------------------|
3-7-6-3-7-6-3-7-6-10-9-8-3-7-6-3-7-6-3-7-6-10-9-8-|
3-7-6-3-7-6-3-7-6-10-9-8-3-7-6-3-7-6-3-7-6-10-9-8-|
3-7-6-3-7-6-3-7-6-10-9-8-3-7-6-3-7-6-3-7-6-10-9-8-|

--------------------------------------------------------|
--------------------------------------------------------|
--------------------------------------------------------|
-3-7-6--------3-7-6--------3-7-6--------3-7-6-----------|
-3-7-6-000000-3-7-6-000000-3-7-6-000000-3-7-6-000000----|
-3-7-6-000000-3-7-6-000000-3-7-6-000000-3-7-6-000000----|

----------------------------------|
----------------------------------|
----------------------------------|
-13-11-12-10-10-11-9-10-9-9-10-9--|4 times
-13-11-12-8--10-11-9-10-7-9-10-9--|
-13-11-12----10-11-9-10---9-10-9--|

-----------------------------------------------|
-----------------------------------------------|
-----------------------------------------------|
-----------------------------------------------|2 times
--------------------------------------00000000-|
-7-6-7-88-5-6-5-4-5-66-4-5-6-88-5-6-5-00000000-|

----------------------------------------------|
----------------------------------------------|
----------------------------------------------|
----------------------------------------------|2 times
--------------------------------------00-00---|
-7-6-7-88-5-6-5-4-5-66-4-5-6-88-5-6-5-00-00---|

-----------------------------------------------------|
-----------------------------------------------------|
-----------------------------------------------------|
----------------------3-7-6-3-7-6-3-7-6-3-7-6-8-7-6--|
-00-00-00-00-00-00-00-3-7-6-3-7-6-3-7-6-3-7-6-8-7-6--|
-00-00-00-00-00-00-00-3-7-6-3-7-6-3-7-6-3-7-6-8-7-6--|

--------------------------------------------------------|
--------------------------------------------------------|
--------------------------------------------------------|
-3-7-6--------3-7-6--------3-7-6--------3-7-6-----------|
-3-7-6-000000-3-7-6-000000-3-7-6-000000-3-7-6-000000----|
-3-7-6-000000-3-7-6-000000-3-7-6-000000-3-7-6-000000----|

--------------------------------------------------------|
--------------------------------------------------------|
--------------------------------------------------------|
-3-7-6--------3-7-6--------3-7-6--------3-7-6-----------|
-3-7-6-000000-3-7-6-000000-3-7-6-000000-3-7-6-000000----|
-3-7-6-000000-3-7-6-000000-3-7-6-000000-3-7-6-000000----|

--------------------------------------------------|
--------------------------------------------------|
--------------------------------------------------|
3-7-6-3-7-6-3-7-6-10-9-8-3-7-6-3-7-6-3-7-6-10-9-8-|
3-7-6-3-7-6-3-7-6-10-9-8-3-7-6-3-7-6-3-7-6-10-9-8-|
3-7-6-3-7-6-3-7-6-10-9-8-3-7-6-3-7-6-3-7-6-10-9-8-|

----------------------------------|
----------------------------------|
----------------------------------|
-13-11-12-10-10-11-9-10-9-9-10-9--|4 times
-13-11-12-8--10-11-9-10-7-9-10-9--|
-13-11-12----10-11-9-10---9-10-9--|

-----------------------------------------------|
-----------------------------------------------|
-----------------------------------------------|
-----------------------------------------------|2 times
--------------------------------------00000000-|
-7-6-7-88-5-6-5-4-5-66-4-5-6-88-5-6-5-00000000-|

----------------------------------------------|
----------------------------------------------|
----------------------------------------------|
----------------------------------------------|2 times
--------------------------------------00-00---|
-7-6-7-88-5-6-5-4-5-66-4-5-6-88-5-6-5-00-00---|

-----------------------------------------------------|
-----------------------------------------------------|
-----------------------------------------------------|
----------------------3-7-6-3-7-6-3-7-6-3-7-6-3-7-6--|
-00-00-00-00-00-00-00-3-7-6-3-7-6-3-7-6-3-7-6-3-7-6--|
-00-00-00-00-00-00-00-3-7-6-3-7-6-3-7-6-3-7-6-3-7-6--|

--------------------------------------------------|
--------------------------------------------------|
--------------------------------------------------|
3-7-6-3-7-6-3-7-6-10-9-8-3-7-6-3-7-6-3-7-6-10-9-8-|
3-7-6-3-7-6-3-7-6-10-9-8-3-7-6-3-7-6-3-7-6-10-9-8-|
3-7-6-3-7-6-3-7-6-10-9-8-3-7-6-3-7-6-3-7-6-10-9-8-|

-------|
-------|
-------|
-8-7-6-|
-8-7-6-|
-8-7-6-|

-------|
-------|
-------|
-6-4-5-|
-6-4-5-|
-6-4-5-|

------------------------------------------|
------------------------------------------|
------------------------------------------|
-6-4-5-00-6-4-5-00-6-4-5-00-6-4-5-8-6-7---|4 times
-6-4-5-00-6-4-5-00-6-4-5-00-6-4-5-8-6-7---|
-6-4-5-00-6-4-5-00-6-4-5-00-6-4-5-8-6-7---|

-------|
-------|
-------|
-6-4-5-|
-6-4-5-|
-6-4-5-|
Tap to rate this tab
# A B C D E F G H I J K L M N O P Q R S T U V W X Y Z