Guitaretab - guitar tabs
Song name
# A B C D E F G H I J K L M N O P Q R S T U V W X Y Z

Every Time I Die - Who Invited The Russian Soldier tab

Every time I Die
Who invited the russian soldier?
by Q

Im almost sure this is right. if not let me know. Thanks guys.


------------------------------------------------------------|
------------------------------------------------------------|
---------430430-----------430430-----------666666-xxxxxxxx--|
-134134----------134134-----------134134---666666-xxxxxxxx--|
-134134----------134134-----------134134---444444-xxxxxxxx--|
-134134----------134134-----------134134----------xxxxxxxx--|

--------------------------------------------------------------------|
---------0---------------------------0------------------------------|
---------3--xx-----------430---------3--xx------------666-xxxxxxxx--|
-134134-----xx-134134431------134134----xx-134134431--666-xxxxxxxx--|
-134134-----xx-134134431------134134----xx-134134431--444-xxxxxxxx--|
-134134-----xx-134134431------134134----xx-134134431------xxxxxxxx--|

------------------------------------------|
---------0--------------------------0-----|
---------3--------------430---------3-----|
-134134----xx-134134431------134134---xx--|
-134134----xx-134134431------134134---xx--|
-134134----xx-134134431------134134---xx--|


----------------------------------------------------------|
----------------------------------------------------------|
----------------------------------------------------------|
--------------------------3\/-----------------------------|
-40320-40320-40320-40320--3\/----555555555555555555555555-|
--------------------------3\/-----------------------------|

-------------------------      ------------------|
-------------------------      ---------------0--|
-------------------------X2    ---------------3--|
-------------------------      -3\/----431-------|
-40320-40320-40320-40320-      -3\/----431-------|
-------------------------      -3\/----431-------|

------------------------------------------------------------------|
------------------------------------------------------------------|
------------------------------------------------------------------|X2
-40310-40310-40310-40310310-----40310-40310-40310-403100-xx-00-xx-|
-40310-40310-40310-40310310-----40310-40310-40310-403100-xx-00-xx-|
-40310-40310-40310-40310310-----40310-40310-40310-403100-xx-00-xx-|

------------------------------------------------------------|
------------------------------------------------------------|
---------430430-----------430430-----------666666-xxxxxxxx--|
-134134----------134134-----------134134---666666-xxxxxxxx--|
-134134----------134134-----------134134---444444-xxxxxxxx--|
-134134----------134134-----------134134----------xxxxxxxx--|

--------------------------------------------------------------------|
---------0---------------------------0------------------------------|
---------3--xx-----------430---------3--xx------------666-xxxxxxxx--|
-134134-----xx-134134431------134134----xx-134134431--666-xxxxxxxx--|
-134134-----xx-134134431------134134----xx-134134431--444-xxxxxxxx--|
-134134-----xx-134134431------134134----xx-134134431------xxxxxxxx--|
[ Tab from: http://www.guitaretab.com/e/every-time-i-die/198579.html ]
------------------------------------------|
---------0--------------------------0-----|
---------3--------------430---------3-----|
-134134----xx-134134431------134134---xx--|
-134134----xx-134134431------134134---xx--|
-134134----xx-134134431------134134---xx--|

-------------|
-------------|
-------------|
-------------|
-40320-40320-|
-------------|

-------------------------      ------------------|
-------------------------      ---------------0--|
-------------------------X2    ---------------3--|
-------------------------      -3\/----431-------|
-40320-40320-40320-40320-      -3\/----431-------|
-------------------------      -3\/----431-------|

------------------------------------------------------------------|
------------------------------------------------------------------|
------------------------------------------------------------------|
-40310-40310-40310-40310310-----40310-40310-40310-40310-310-310---|
-40310-40310-40310-40310310-----40310-40310-40310-40310-310-310---|
-40310-40310-40310-40310310-----40310-40310-40310-40310-310-310---|

---------------------------------------|
-0000000000000000-0000000-0000000------|
-4444444444444444-3333333-0000000------|
---------------------------------------|
---------------------------------------|
---------------------------------------|

-------------------------------------------------------------------|
----00000000000------------000000000000000000000000----------------|
----44444444444------------444444444444444443333333----------------|
-00--------------0-xx-0-------------------------------0-xx-0-xx-0--|
-00--------------0-xx-0-------------------------------0-xx-0-xx-0--|
-00--------------0-xx-0-------------------------------0-xx-0-xx-0--|

----------------------------------------------------------|
----00000000000------------000000000000000000000000-------|
----44444444444------------444444444444444443333333-------|
-----------------0-xx-0-------------------------------00--|
-----------------0-xx-0-------------------------------00--|
-----------------0-xx-0-------------------------------00--|

-------------------------------------------------------------------|
----00000000000------------000000000000000000000000----------------|
----44444444444------------444444444444444443333333----------------|
-----------------0-xx-0-------------------------------0-xx-0-xx-0--|
-----------------0-xx-0-------------------------------0-xx-0-xx-0--|
-----------------0-xx-0-------------------------------0-xx-0-xx-0--|

---------------------------------------------------------------------------|
----00000000000------------000000000000000000000000------------------------|
----44444444444------------444444444444444443333333------------------------|
-----------------0-xx-0-------------------------------0-xx-0-xx-0-xx-0-xx--|
-----------------0-xx-0-------------------------------0-xx-0-xx-0-xx-0-xx--|
-----------------0-xx-0-------------------------------0-xx-0-xx-0-xx-0-xx--|

----------------|
----------------|
----------------|
--4-3-1---------|
--4-3-1---------|
--4-3-1---------|
Related for Who Invited The Russian Soldier tab
×
Best way to learn
"Who Invited The Russian Soldier"