Song name
# A B C D E F G H I J K L M N O P Q R S T U V W X Y Z

Every Time I Die - The Sweet Life tab

Not many parts to this song, but still fun to play! It sounds right to me so hopefully 
is. This is my first tab so lets hope you can understand it.

-----------------------------------------------------------------------------
The Sweet Life
-----------------------------------------------------------------------------

Tuning(Drop D): DADGBE


E|--------------|
B|--------------|
G|--------------|
D|-8-8---3-3----|
A|-8-8---3-3----|
D|-8-8---3-3----|


E|---------------------------|-----------|     |------------|
B|---------------------------|-----------|     |------------|
G|---------------------------|-----------|     |------------|
D|-5--5-5-5-5-5-5-5-5-5-5-5--|-----------|     |-8-8---3-3--|
A|-5--5-5-5-5-5-5-5-5-5-5-5--|-----------|     |-8-8---3-3--|
D|-5--5-5-5-5-5-5-5-5-5-5-5--|8h10h8-5-8-|(x3) |-8-8---3-3--|(4th time)


E|------------------------------------------|
B|---------------------------------10--10---|
G|---------------------------------12b-12b--|
D|-10--12-12-12-12-12-12-12-10-12-----------|
A|-10--12-12-12-12-12-12-12-10-12-----------|
D|-10--12-12-12-12-12-12-12-10-12-----------|


E|-------------------------------------|
B|-------------------------------------|
G|-------------------------------------|
D|-10--12-12-12-12-12-12-12-6-5--2-3---|
A|-10--12-12-12-12-12-12-12-6-5--2-3---|
D|-10--12-12-12-12-12-12-12-6-5--2-3---|


E|------------------------------------------|
B|---------------------------------10--10---|
G|---------------------------------12b-12b--|
D|-10--12-12-12-12-12-12-12-10-12-----------|
A|-10--12-12-12-12-12-12-12-10-12-----------|
D|-10--12-12-12-12-12-12-12-10-12-----------|


E|------------------------------------------|
B|------------------------------------------|
G|------------------------------------------|
D|-10--12-12-12-12-12-12-12-15-17--17-15----|
A|-10--12-12-12-12-12-12-12-15-17--17-15----|
D|-10--12-12-12-12-12-12-12-15-17--17-15----|


E|--------------|
B|--------------|
G|--------------|
D|-8-8---3-3----|
A|-8-8---3-3----|
D|-8-8---3-3----|


E|---------------------------|-----------|     |------------|
B|---------------------------|-----------|     |------------|
G|---------------------------|-----------|     |------------|
D|-5--5-5-5-5-5-5-5-5-5-5-5--|-----------|     |-8-8---3-3--|
A|-5--5-5-5-5-5-5-5-5-5-5-5--|-----------|     |-8-8---3-3--|
D|-5--5-5-5-5-5-5-5-5-5-5-5--|8h10h8-5-8-|(x3) |-8-8---3-3--|(4th time)


E|------------------------------------------|
B|---------------------------------10--10---|
G|---------------------------------12b-12b--|
D|-10--12-12-12-12-12-12-12-10-12-----------|
A|-10--12-12-12-12-12-12-12-10-12-----------|
D|-10--12-12-12-12-12-12-12-10-12-----------|


E|-------------------------------------|
B|-------------------------------------|
G|-------------------------------------|
D|-10--12-12-12-12-12-12-12-6-5--2-3---|
A|-10--12-12-12-12-12-12-12-6-5--2-3---|
D|-10--12-12-12-12-12-12-12-6-5--2-3---|


E|------------------------------------------|
B|---------------------------------10--10---|
G|---------------------------------12b-12b--|
D|-10--12-12-12-12-12-12-12-10-12-----------|
A|-10--12-12-12-12-12-12-12-10-12-----------|
D|-10--12-12-12-12-12-12-12-10-12-----------|


E|------------------------------------------|
B|------------------------------------------|
G|------------------------------------------|
D|-10--12-12-12-12-12-12-12-15-17--17-15----|
A|-10--12-12-12-12-12-12-12-15-17--17-15----|
D|-10--12-12-12-12-12-12-12-15-17--17-15----|


E|---------------------------|
B|---------------------------|
G|---------------------------|
D|-8~--3~--5~----8~--3~------|
A|-8~--3~--5~----8~--3~------|
D|-8~--3~--5~----8~--3~------|


E|--------------------------|
B|--------------------------|
G|--------------------------|
D|-5-5-5-5-5-5-5-5--8~--3~--|
A|-5-5-5-5-5-5-5-5--8~--3~--|
D|-5-5-5-5-5-5-5-5--8~--3~--|


E|---------------------------------------------------------|
B|---------------------------------------------------------|
G|---------------------------------------------------------|
D|-------------------------------------------------8~--3~--|
A|-------------------------------------------------8~--3~--|
D|-5-5-5-5-5-5-7-5-5-5-5-5-5-5-5-5-5-5-7-5-5-5-5-5-8~--3~--|


E|----------------------------------------------------------|
B|----------------------------------------------------------|
G|----------------------------------------------------------|
D|--------------------------------------------------8~--3~--|
A|-------------------------5-8-8-8-8-8-10-8-8-8-5-5-8~--3~--|
D|-5-5-5-5-5-5-7-5-5-5-5-5--------------------------8~--3~--|


E|---------------------------------------------------------|
B|---------------------------------------------------------|
G|---------------------------------------------------------|
D|-------------------------------------------------8~--3~--|
A|-------------------------------------------------8~--3~--|
D|-5-5-5-5-5-5-7-5-5-5-5-5-5-5-5-5-5-5-7-5-5-5-5-5-8~--3~--|

E|----------------------------------------------------------|
B|----------------------------------------------------------|
G|----------------------------------------------------------|
D|--------------------------------------------------8~--3~--|
A|-------------------------5-8-8-8-8-8-10-8-8-8-5-5-8~--3~--|
D|-5-5-5-5-5-5-7-5-5-5-5-5--------------------------8~--3~--|

E|--------------------------------------------------------------|
B|--------------------------------------------------------------|
G|--------------------------------------------------------------|
D|-5--5-5-5-5-5-5-5-5-5-5-5-------------5-5-5-5-5-5-5---8---3---|
A|-5--5-5-5-5-5-5-5-5-5-5-5-------------5-5-5-5-5-5-5---8---3---|
D|-5--5-5-5-5-5-5-5-5-5-5-5--8h10h8-5-8-5-5-5-5-5-5-5---8---3---|

E|---------------------------|-----------|     |------------|
B|---------------------------|-----------|     |------------|
G|---------------------------|-----------|     |------------|
D|-5--5-5-5-5-5-5-5-5-5-5-5--|-----------|     |-8-8---3-3--|
A|-5--5-5-5-5-5-5-5-5-5-5-5--|-----------|     |-8-8---3-3--|
D|-5--5-5-5-5-5-5-5-5-5-5-5--|8h10h8-5-8-|(x3) |-8-8---3-3--|(4th time)

E|-----|
B|-----|
G|-----|
D|-5--5|
A|-5--5|
D|-5--5|

There it is minus a few 2nd guitar parts, enjoy!
Tap to rate this tab
# A B C D E F G H I J K L M N O P Q R S T U V W X Y Z