Song name
# A B C D E F G H I J K L M N O P Q R S T U V W X Y Z

Every Time I Die - Who Invited The Russian Soldier tab

verse
e|---------------------------------------------------------------------------|
B|-----------------------------0--0-0-------------------------------0--0-0---|
G|-----------------------------4--3-0-------------------------------4--3-0---|
D|-1--3-4---1--3-4---1--3-4-------------1--3-4---1--3-4---1--3-4-------------|
A|-1--3-4---1--3-4---1--3-4-------------1--3-4---1--3-4---1--3-4-------------|
D|-1--3-4---1--3-4---1--3-4-------------1--3-4---1--3-4---1--3-4-------------|


e|---------------------------------------------------------------------------|
B|---------------------------------------------------------------------------|
G|--------------------------------------pm.............----------------------|
D|-1--3-4---1--3-4---6--6--6--6--6--6---6-6-6-6-6-6-6-6----------------------|
A|-1--3-4---1--3-4---4--4--4--4--4--4---4-4-4-4-4-4-4-4----------------------|
D|-1--3-4---1--3-4-----------------------------------------------------------|

e|-----------------------------------------------------------------|
B|-------------------0------------------------------------0--0-0---|
G|-------------------3------------------------------------4--3-0---|
D|-1--3-4---1--3-4----------1--3-4---1--3-4---4--3-1---------------|
A|-1--3-4---1--3-4----------1--3-4---1--3-4---4--3-1---------------|
D|-1--3-4---1--3-4----------1--3-4---1--3-4---4--3-1---------------|

e|---------------------------------------------------------------------------|
B|-------------------0-------------------------------------------------------|
G|-------------------3---------------------------------------pm.............-|
D|-1--3-4---1--3-4-------1--3-4---1--3-4---4--3-1--6--6--6---6-6-6-6-6-6-6-6-|
A|-1--3-4---1--3-4-------1--3-4---1--3-4---4--3-1--4--4--4---4-4-4-4-4-4-4-4-|
D|-1--3-4---1--3-4-------1--3-4---1--3-4---4--3-1----------------------------|

e|-----------------------------------------------------------------|
B|-------------------0------------------------------------0--0-0---|
G|-------------------3------------------------------------4--3-0---|
D|-1--3-4---1--3-4----------1--3-4---1--3-4---4--3-1---------------|
A|-1--3-4---1--3-4----------1--3-4---1--3-4---4--3-1---------------|
D|-1--3-4---1--3-4----------1--3-4---1--3-4---4--3-1---------------|

e|-------------------------|
B|-------------------0-----|
G|-------------------3-----|
D|-1--3-4---1--3-4---------|
A|-1--3-4---1--3-4---------|
D|-1--3-4---1--3-4---------|

guitar 1
e|------------------------------------|
B|------------------------------------|
G|------------------------------------|
D|------------------------------------|
A|-4-0-3-2-1---4-0-3-2-1---4-0-3-2-1--|repeat ? times
D|------------------------------------|

guitar 2
e|------------------------------------|
B|------------------------------------|
G|------------------------------------|
D|------------------------------------|
A|------------------------------------|
D|--/slide\--11~~~--------------------|

both guitars
e|------------------------------------|
B|------------------------------------|
G|------------------------------------|
D|------------------------------------|
A|-4-0-3-2-1---4-0-3-2-1---4-0-3-2-1--|repeat ? times
D|------------------------------------|

e|------------------------------------|
B|--------------------------------0---|
G|--------------------------------3---|
D|-----------------3-2-1--------------|
A|-----------------3-2-1--------------|
D|--/slide\--/11---3-2-1--------------|


nifty riff
(i was too lazy to figure out the timings but they should be easy enough)
both guitars
e|------------------------------------|
B|------------------------------------|
G|------------------------------------|
D|-4-0-3-2-1---4-0-3-2-1---4-0-3-2-1--|
A|-4-0-3-2-1---4-0-3-2-1---4-0-3-2-1--|repeat ? times
D|-4-0-3-2-1---4-0-3-2-1---4-0-3-2-1--|

with the occasianal in the middle (end with this also)
e|------------------------------------|
B|------------------------------------|
G|pm...............-------------------|
D|--0--0-0---0--0-0-------------------|
A|--0--0-0---0--0-0-------------------|
D|--0--0-0---0--0-0-------------------|


guitar 1
e|-------------------------|
B|-------------------------|
G|-------------------------|
D|-1--3-4---1--3-4---------|
A|-1--3-4---1--3-4---------|
D|-1--3-4---1--3-4---------|

guitar 2
e|-----------------------------------|
B|-----------------0--0-0---0--0-0---|
G|-----------------4--3-0---4--3-0---|
D|-----------------------------------|
A|-----------------------------------|
D|-----------------------------------|

verse
both guitars
e|-------------------------------------|
B|-------------------0--0-0---0--0-0---|
G|-------------------4--3-0---4--3-0---|
D|-1--3-4---1--3-4---------------------|
A|-1--3-4---1--3-4---------------------|
D|-1--3-4---1--3-4---------------------|


e|---------------------------------------------------------------------------|
B|---------------------------------------------------------------------------|
G|--------------------------------------pm.............----------------------|
D|-1--3-4---1--3-4---6--6--6--6--6--6---6-6-6-6-6-6-6-6----------------------|
A|-1--3-4---1--3-4---4--4--4--4--4--4---4-4-4-4-4-4-4-4----------------------|
D|-1--3-4---1--3-4-----------------------------------------------------------|

e|-----------------------------------------------------------------|
B|-------------------0------------------------------------0--0-0---|
G|-------------------3------------------------------------4--3-0---|
D|-1--3-4---1--3-4----------1--3-4---1--3-4---4--3-1---------------|
A|-1--3-4---1--3-4----------1--3-4---1--3-4---4--3-1---------------|
D|-1--3-4---1--3-4----------1--3-4---1--3-4---4--3-1---------------|

e|---------------------------------------------------------------------------|
B|-------------------0-------------------------------------------------------|
G|-------------------3---------------------------------------pm.............-|
D|-1--3-4---1--3-4-------1--3-4---1--3-4---4--3-1--6--6--6---6-6-6-6-6-6-6-6-|
A|-1--3-4---1--3-4-------1--3-4---1--3-4---4--3-1--4--4--4---4-4-4-4-4-4-4-4-|
D|-1--3-4---1--3-4-------1--3-4---1--3-4---4--3-1----------------------------|

e|-----------------------------------------------------------------|
B|-------------------0------------------------------------0--0-0---|
G|-------------------3------------------------------------4--3-0---|
D|-1--3-4---1--3-4----------1--3-4---1--3-4---4--3-1---------------|
A|-1--3-4---1--3-4----------1--3-4---1--3-4---4--3-1---------------|
D|-1--3-4---1--3-4----------1--3-4---1--3-4---4--3-1---------------|

e|------------------------------------|
B|------------------------------------|
G|------------------------------------|
D|------------------------------------|
A|-4-0-3-2-1---4-0-3-2-1---4-0-3-2-1--|repeat ? times
D|------------------------------------|

e|--------------------------------------|
B|----------------------------------0---|
G|----------------------------------3---|
D|-----------------3-2-1----------------|
A|-----------------3-2-1----------------|
D|--/slide\--/11---3-2-1----------------|


e|------------------------------------|
B|------------------------------------|
G|------------------------------------|
D|-4-0-3-2-1---4-0-3-2-1---4-0-3-2-1--|
A|-4-0-3-2-1---4-0-3-2-1---4-0-3-2-1--|repeat ? times
D|-4-0-3-2-1---4-0-3-2-1---4-0-3-2-1--|


BREAKDOWN

guitar 1 repeat throughout
e|-------------------------------------------------------------------|
B|-0-0-0-0-0-0-0-0-0-0-0-0-0-0-0-0-0-0-0-0-0-0-0-0-0-0-0-0-0-0-0-0---|
G|-4-4-4-4-4-4-4-4-4-4-4-4-4-4-4-4-3-3-3-3-3-3-3-3-0-0-0-0-0-0-0-0---|
D|-------------------------------------------------------------------|
A|-------------------------------------------------------------------|
D|-------------------------------------------------------------------|

guitar 2
e|-------------------------------------------------------------------|
B|-------------------------------------------------------------------|
G|-------------------------------------------------------------------|
D|-0---0--0-0--0-----0---0-0--0--0-0--0-----0---0-0--0-----0-0-------|
A|-0---0--0-0--0-----0---0-0--0--0-0--0-----0---0-0--0-----0-0-------|
D|-0---0--0-0--0-----0---0-0--0--0-0--0-----0---0-0--0-----0-0-------|


overdubbed guitar
e|-------------------------------------------------------------------|
B|-------------------------------------------------------------------|
G|-------------------------------------------------------------------|
D|--4-4-4-4-4-4-4-4-4-4-4-4-4-4-4-4-3-3-3-3-3-3-3-3-3-3-3-3-3-3-3-3--|
A|-------------------------------------------------------------------|
D|-------------------------------------------------------------------|

guitar 2
e|------------------------------------------------------|
B|------------------------------------------------------|
G|------------------------------------------------------|
D|---0--0-0--0-----0---0-0--0--0-0--0-----0---0-0--0----|
A|---0--0-0--0-----0---0-0--0--0-0--0-----0---0-0--0----|
D|---0--0-0--0-----0---0-0--0--0-0--0-----0---0-0--0----|

e|---------------------------------------------|
B|---------------------------------------------|
G|---------------------------------------------|
D|-0---0-0--0---0-0--0---0-0--0----0-0--3-2-1--|
A|-0---0-0--0---0-0--0---0-0--0----0-0--3-2-1--|
D|-0---0-0--0---0-0--0---0-0--0----0-0--3-2-1--|
Tap to rate this tab
# A B C D E F G H I J K L M N O P Q R S T U V W X Y Z