Song name
# A B C D E F G H I J K L M N O P Q R S T U V W X Y Z

Every Time I Die - Turtles All The Way Down tab

E||--------------------|
B||--------------------|
G||------8~------------|   x4
D||--8~--6~--8~--6-7-8-|
A||--8~--6~--8~--6-7-8-|
D||--8~--6~--8~--6-7-8-|


------------------------------|
------------------------------|
-------8-8--------------------|   x6
-8-8-8-6-6-8-8-6-6-7-7-x-x-x-x|
-8-8-8-6-6-8-8-6-6-7-7-x-x-x-x|
-8-8-8-6-6-8-8-6-6-7-7-x-x-x-x|


-----------------------|---------------------------|
-----------------------|---------------------------|
--------------------6-6|--------------------------6|
-8-6-7-8-6-7-8-6-7-8---|-8-6-7-8-6-7-8-6-7-8-------|
-8-6-7-8-6-7-8-6-7-8---|-8-6-7-8-6-7-8-6-7-8-6h7h8-|
-8-6-7-8-6-7-8-6-7-8---|-8-6-7-8-6-7-8-6-7-8-------|


------------------------|-----------------------------|  
------------------------|-----------------------------| 
--------------------6-8b|-----------------------------| 
-8-6-7-8-6-7-8-6-7-8----|-8-6-7-8-6-7-8-6-7-8--8\\\\--| 
-8-6-7-8-6-7-8-6-7-8----|-8-6-7-8-6-7-8-6-7-8--8\\\\--|  
-8-6-7-8-6-7-8-6-7-8----|-8-6-7-8-6-7-8-6-7-8--8\\\\--| 


-------------------------------------|
-------------------------------------|
-------------------------------------|
-------------------------------------|
-------------------------------------|
-33-11-22-33-11-22-33-11-22-33-11-22-|


-------------------------------------|
-------------------------------------|
-------------------------------------|
-33-11-22-33-11-22-33-11-22-33-11-22-|
-xx-xx-xx-xx-xx-xx-xx-xx-xx-xx-xx-xx-|
-33-11-22-33-11-22-33-11-22-33-11-22-|


------------------|
------------------|
------------------|  x3
8\\\\\\\\1////////|
8\\\\\\\\1////////|
8\\\\\\\\1////////|


-------------------------------|
-------------------------------|
--------8-8--------------------|   x4
x-8-8-8-6-6-8-8-6-6-7-7-x-x-x-x|
x-8-8-8-6-6-8-8-6-6-7-7-x-x-x-x|
x-8-8-8-6-6-8-8-6-6-7-7-x-x-x-x|


-----------------------|---------------------------|
-----------------------|---------------------------|
--------------------6-6|--------------------------6|
-8-6-7-8-6-7-8-6-7-8---|-8-6-7-8-6-7-8-6-7-8-------|
-8-6-7-8-6-7-8-6-7-8---|-8-6-7-8-6-7-8-6-7-8-6h7h8-|
-8-6-7-8-6-7-8-6-7-8---|-8-6-7-8-6-7-8-6-7-8-------|


-----------------------------|-----------------------------|  
--------------------8-10bb---|-----------------------------| 
-----------------------------|-----------------------------|
-8-6-7-8-6-7-8-6-7-8---------|-8-6-7-8-6-7-8-6-7-8--8\\\\\-|
-8-6-7-8-6-7-8-6-7-8---------|-8-6-7-8-6-7-8-6-7-8--8\\\\\-| 
-8-6-7-8-6-7-8-6-7-8---------|-8-6-7-8-6-7-8-6-7-8--8\\\\\-|


-------------------------------------|
-------------------------------------|
-------------------------------------|
-------------------------------------|
-------------------------------------|
-33-11-22-33-11-22-33-11-22-33-11-22-|


-------------------------------------|
-------------------------------------|
-------------------------------------|
-33-11-22-33-11-22-33-11-22-33-11-22-|
-xx-xx-xx-xx-xx-xx-xx-xx-xx-xx-xx-xx-|
-33-11-22-33-11-22-33-11-22-33-11-22-|


-------------|
-------------|
-------------|
-3-1-2-3-1-2-|
-3-1-2-3-1-2-|
-3-1-2-3-1-2-|


--------------------|
--------------------|
------8~------------|   x4
--8~--6~--8~--6-7-8-|
--8~--6~--8~--6-7-8-|
--8~--6~--8~--6-7-8-|


------------------------------|
------------------------------|
-------8-8--------------------|   x3
-8-8-8-6-6-8-8-6-6-7-7-x-x-x-x| 
-8-8-8-6-6-8-8-6-6-7-7-x-x-x-x| 
-8-8-8-6-6-8-8-6-6-7-7-x-x-x-x| <3rd (last) time>
Tap to rate this tab
 
# A B C D E F G H I J K L M N O P Q R S T U V W X Y Z