Song name
# A B C D E F G H I J K L M N O P Q R S T U V W X Y Z

Every Time I Die - Turtles All The Way Down tab

e|----------------------------------------------------------------------|
b|----------------------------------------------------------------------|
g|--------------------------------8~------------------------------------|
d|------Drum Entrance-----8~------7~------8~------6--6--7--8~-----------|
a|------------------------8~------6~------8~------6--6--7--8~-----------|
D|------------------------8~------6~------8~------6--6--7--8~-----------| 4x


e|--------------------------x-x-x----|
b|--------------------------x-x-x----|
g|---------9-9--------------x-x-x----|
d|--8--8-8-7-7-8-8-6-6-h7-7-x-x-x----|
a|--8--8-8-----8-8-6-6-h7-7-x-x-x----|
D|--8--8-8-----8-8-6-6-h7-7-x-x-x----|x6

e|---------------------------------------------------------|
b|---------------------------------------------------------|
g|----------------------6-6~--------------------------6----|
d|--8-6-7-8-6-7-8-6-7-8------8-6-7-8-6-7-8-6-7-8-0h3h6-----|
a|--8-6-7-8-6-7-8-6-7-8------8-6-7-8-6-7-8-6-7-8-----------|
D|--8-6-7-8-6-7-8-6-7-8------8-6-7-8-6-7-8-6-7-8-----------|

e|---------------------------------------------------|
b|---------------------------------------------------|
g|----------------------6-8^-------------------------|
d|--8-6-7-8-6-7-8-6-7-8-------8-6-7-8-6-7-8-6-7-8----|
a|--8-6-7-8-6-7-8-6-7-8-------8-6-7-8-6-7-8-6-7-8----|
D|--8-6-7-8-6-7-8-6-7-8-------8-6-7-8-6-7-8-6-7-8----|

e|-------------------------------------------------------------------------|
b|-------------------------------------------------------------------------|
g|-------------------------------------------------------------------------|
d|-------------------------------------------------------------------------|
a|-3-3-1-1-2-2-3-3-1-1-2-2-3-3-1-1-2-2-3-3-1-1-2-2-3-3-1-1-2-2-3-3-1-1-2-2-|
D|-3-3-1-1-2-2-3-3-1-1-2-2-3-3-1-1-2-2-3-3-1-1-2-2-3-3-1-1-2-2-3-3-1-1-2-2-|

e|-------------------------------------------------------------------------|
b|-------------------------------------------------------------------------|
g|-------------------------------------------------------------------------|
d|-3-3-1-1-2-2-3-3-1-1-2-2-3-3-1-1-2-2-3-3-1-1-2-2-3-3-1-1-2-2-3-3-1-1-2-2-|
a|-------------------------------------------------------------------------|
D|-------------------------------------------------------------------------|

e|--------------------------------|
b|--------------------------------|
g|--------------------------------|
d|--3--------3--------3--------3--|
a|--3--------3--------3--------3--|
D|--3--------3--------3--------3--|

e|--------------------------x-x-x----|
b|--------------------------x-x-x----|
g|---------9-9--------------x-x-x----|
d|--8--8-8-7-7-8-8-6-6-h7-7-x-x-x----|
a|--8--8-8-----8-8-6-6-h7-7-x-x-x----|
D|--8--8-8-----8-8-6-6-h7-7-x-x-x----|x4

e|---------------------------------------------------------|
b|---------------------------------------------------------|
g|----------------------6-6~--------------------------6----|
d|--8-6-7-8-6-7-8-6-7-8------8-6-7-8-6-7-8-6-7-8-0h3h6-----|
a|--8-6-7-8-6-7-8-6-7-8------8-6-7-8-6-7-8-6-7-8-----------|
D|--8-6-7-8-6-7-8-6-7-8------8-6-7-8-6-7-8-6-7-8-----------|

e|----------------------------------------------------------|
b|----------------------------------------------------------|
g|----------------------6-8h9p8h9p8-------------------------|
d|--8-6-7-8-6-7-8-6-7-8--------------8-6-7-8-6-7-8-6-7-8----|
a|--8-6-7-8-6-7-8-6-7-8--------------8-6-7-8-6-7-8-6-7-8----|
D|--8-6-7-8-6-7-8-6-7-8--------------8-6-7-8-6-7-8-6-7-8----|

e|-------------------------------------------------------------------------|
b|-------------------------------------------------------------------------|
g|-------------------------------------------------------------------------|
d|-------------------------------------------------------------------------|
a|-3-3-1-1-2-2-3-3-1-1-2-2-3-3-1-1-2-2-3-3-1-1-2-2-3-3-1-1-2-2-3-3-1-1-2-2-|
D|-3-3-1-1-2-2-3-3-1-1-2-2-3-3-1-1-2-2-3-3-1-1-2-2-3-3-1-1-2-2-3-3-1-1-2-2-|

e|-------------------------------------------------------------------------|
b|-------------------------------------------------------------------------|
g|-------------------------------------------------------------------------|
d|-3-3-1-1-2-2-3-3-1-1-2-2-3-3-1-1-2-2-3-3-1-1-2-2-3-3-1-1-2-2-3-3-1-1-2-2-|
a|-------------------------------------------------------------------------|
D|-------------------------------------------------------------------------|

e|-------------------------------------------------------------|
b|-------------------------------------------------------------|
g|-----------------------8~------------------------------------|
d|--3-1-2-3-1-2--8~------7~------8~------6--6--7--8~-----------|
a|--3-1-2-3-1-2--8~------6~------8~------6--6--7--8~-----------|
D|--3-1-2-3-1-2--8~------6~------8~------6--6--7--8~-----------|

e|--------------------------x-x-x----|
b|--------------------------x-x-x----|
g|---------9-9--------------x-x-x----|
d|--8--8-8-7-7-8-8-6-6-h7-7-x-x-x----|
a|--8--8-8-----8-8-6-6-h7-7-x-x-x----|
D|--8--8-8-----8-8-6-6-h7-7-x-x-x----|x3
Tap to rate this tab
 
# A B C D E F G H I J K L M N O P Q R S T U V W X Y Z