Song name
# A B C D E F G H I J K L M N O P Q R S T U V W X Y Z

Every Time I Die - Organ Grinder tab

Song: Organ Grinder
Band: Every Time I Die
Album: New Junk Aesthetic
Tuning: Drop D

Since the beginning sounds kind of like a chainsaw I'm spacing the numbers out so you 
the notes. The rhythm is pretty self explanatory though.

Reverb on the bends

e|--------------------------------------------------|
b|--------------------------------------------------|
G|--------------------------------------------------|
d|--2~----------------------4~----------------------|
A|--2~---1b3b1--------------4~---3b5b3--------------|
D|--2~----------------------4~----------------------|

e|-----------------------------------------------------------------------|
b|-----------------------------------------------------------------------|
G|-----------------------------------------------------------------------|
d|--8h9645p05px5h6312~888-222-8-10-11-11~-6542h3~1-1h22-13-13-----13x----|
A|--8h9645p03p05h6312~666-222-8-10-11-11~-6542h3~1-1h22-12-12-----12x----|
D|--8h9645p0---5h6312~----222-8-10-11-11~-6542h3~1-1h22-11-11-----11x----|

e|--------------------------------------------------------------------|
b|--------------------------------------------------------------------|
G|--------------------------------------------------------------------|
d|--8h9645p05px5h6312~888-222-8-10-11-11~-6542h3~1-1h22-13-13---------|
A|--8h9645p03p05h6312~666-222-8-10-11-11~-6542h3~1-1h22-12-12---------|
D|--8h9645p0---5h6312~----222-8-10-11-11~-6542h3~1-1h22-11-11---------|

e|--------------------------------------------------------------------|
b|--------------------------------------------------------------------|
G|--------------------------------------------------------------------|
d|--8h9645p05px5h6312~888-222-8-10-11-11~-6542h3~1-1h22-13-13---------|
A|--8h9645p03p05h6312~666-222-8-10-11-11~-6542h3~1-1h22-12-12---------|
D|--8h9645p0---5h6312~----222-8-10-11-11~-6542h3~1-1h22-11-11---------|

e|--------------------------|
b|--------------------------|
G|--------------------------|
d|---------------10h1197h86-|
A|--9(12 beats)--10h1197h86-|
D|---------------10h1197h86-|
       You don't know...

I'm working on the rest and have most of it. It's just notes here and there. I'll post 
when i have it 100%.

Comments?
bnash570@gmail.com
Tap to rate this tab
# A B C D E F G H I J K L M N O P Q R S T U V W X Y Z