Song name
# A B C D E F G H I J K L M N O P Q R S T U V W X Y Z

Every Time I Die - Organ Grinder tab

e|--------------------------------------------------|
b|--------------------------------------------------|
G|--------------------------------------------------|
d|--2~----------------------4~----------------------|
A|--2~---1b3b1--------------4~---3b5b3--------------|
D|--2~----------------------4~----------------------|

e|-----------------------------------------------------------------------|
b|-----------------------------------------------------------------------|
G|------------------------------------------------------13-13-----13x----|
d|--8h9645p05px5h6312~888-222-8-10-11-11~-6542h3~1-1h22-12-12-----12x----|
A|--8h9645p03p05h6312~666-222-8-10-11-11~-6542h3~1-1h22-11-11-----11x----|
D|--8h9645p0---5h6312~----222-8-10-11-11~-6542h3~1-1h22------------------|

e|--------------------------------------------------------------------|
b|--------------------------------------------------------------------|
G|------------------------------------------------------13-13---------|
d|--8h9645p05px5h6312~888-222-8-10-11-11~-6542h3~1-1h22-12-12---------|
A|--8h9645p03p05h6312~666-222-8-10-11-11~-6542h3~1-1h22-11-11---------|
D|--8h9645p0---5h6312~----222-8-10-11-11~-6542h3~1-1h22---------------|

e|--------------------------------------------------------------------|
b|--------------------------------------------------------------------|
G|------------------------------------------------------13-13---------|
d|--8h9645p05px5h6312~888-222-8-10-11-11~-6542h3~1-1h22-12-12---------|
A|--8h9645p03p05h6312~666-222-8-10-11-11~-6542h3~1-1h22-11-11---------|
D|--8h9645p0---5h6312~----222-8-10-11-11~-6542h3~1-1h22---------------|

e|------------------------------|
b|------------------------------|
G|---------------7h8-6---6------|
d|---------------7h8-6-8-6-6----|
A|--7(12 beats)--------8---6----|
D|------------------------------|

COWBELL!!!

e|---------------------------------------------|
b|---------------------------------------------|         
G|---------------------------------------------|    
d|--------6~--876-6-----------6~--10-9-8-8-7-6-|    |-5-4-3-2-3-1-|
A|----------0----8-7-7----------0--8-7-6-8-7-6-|    |-3-2-1-2-3-1-|
D|--0-0-0---0---------000-0-0---0--------8-7-6-|4x  |-------2-3-1-|
                      xxx x x

e|----0-------0-----0----0--------------|
b|----9-------9-----9----9--------------|
G|--------------------------------------|
d|-654----------6542--654--2/6p0-654231-|
A|-654---2/6p0--6542--654--2/6p0-654231-|
D|-654---2/6p0--6542--654--2/6p0-654231-|2x


e|----0------0-----0----0-------------------------------------|
b|----5------5-----5----5-------------------------------------|
G|----5------5-----5----5-------------------------------------|
d|-321--2/6p0--3210--321--2/6p0-654231------------------------|
A|-321--2/6p0--3210--321--2/6p0-654231------------------------|
D|-321--2/6p0--3210--321--2/6p0-654231--2(16 beats on 2x)-----|

e|----------------------------------------|
b|----------------------------------------|
G|-----------------13131313-13131313-1313-|    Going on in the back
d|-----------------12121212-12121212-1212-|   |-----|
A|-(feedback)--2/\-11111111-11111111-1111-|   |-3b4-|
D|-------------2/\------------------------|4x |-----|

MORE COWBELL!!!!

e|---------------------------------------------|
b|---------------------------------------------|         
G|---------------------------------------------|    
d|--------6~--876-6-----------6~--10-9-8-8-7-6-|    |-5-4-3-2-3-1-|
A|----------0----8-7-7----------0--8-7-6-8-7-6-|    |-3-2-1-2-3-1-|
D|--0-0-0---0---------000-0-0---0--------8-7-6-|4x  |-------2-3-1-|
                      xxx x x


e|----0------0-----0----0-------------------------------------|
b|----5------5-----5----5-------------------------------------|
G|----5------5-----5----5-------------------------------------|
d|-321--2/6p0--3210--321--2/6p0-654231------------------------|
A|-321--2/6p0--3210--321--2/6p0-654231------------------------|
D|-321--2/6p0--3210--321--2/6p0-654231--2(8 beats on 2x)------|


e|------------------------|
b|------------------------|
G|-13131313-13131313-1313-|    Going on in the back
d|-12121212-12121212-1212-|   |-----|
A|-11111111-11111111-1111-|   |-3b4-|
D|------------------------|4x |-----|

e|-----------------------------------------------------------------------|
b|-----------------------------------------------------------------------|
G|------------------------------------------------------13-13-----13x----|
d|--8h9645p05px5h6312~888-222-8-10-11-11~-6542h3~1-1h22-12-12-----12x----|
A|--8h9645p03p05h6312~666-222-8-10-11-11~-6542h3~1-1h22-11-11-----11x----|
D|--8h9645p0---5h6312~----222-8-10-11-11~-6542h3~1-1h22------------------|

e|--------------------------------------------------------------------|
b|--------------------------------------------------------------------|
G|------------------------------------------------------13-13---------|
d|--8h9645p05px5h6312~888-222-8-10-11-11~-6542h3~1-1h22-12-12---------|
A|--8h9645p03p05h6312~666-222-8-10-11-11~-6542h3~1-1h22-11-11---------|
D|--8h9645p0---5h6312~----222-8-10-11-11~-6542h3~1-1h22---------------|2x

Slower speed

e|-------------------------------|
b|-------------------------------|
G|-------------------------13-13-|
d|-65423~1122~-65423~1122~-12-12-|
A|-65423~1122~-65423~1122~-11-11-|
D|-65423~1122~-65423~1122~-------|

e|----0------0-----0----0---------------------|
b|----5------5-----5----5---------------------|
G|----5------5-----5----5---------------------|
d|-321--2/6p0--3210--321--2/6p0-654231--------|
A|-321--2/6p0--3210--321--2/6p0-654231--------|
D|-321--2/6p0--3210--321--2/6p0-654231--------|


You can figure out the ending. It's the same stuff. 

If you have any comments or corrections lemme know.
bnash570@gmail.com
Tap to rate this tab
# A B C D E F G H I J K L M N O P Q R S T U V W X Y Z