Song name
# A B C D E F G H I J K L M N O P Q R S T U V W X Y Z

Every Time I Die - I Suck Blood tab

-----------------------------------------------------------------
I Suck [Blood] - Every Time I Die
-----------------------------------------------------------------
Tabbed by: Jake Miller (millarso)
Email: millarso2.0@gmail.com
Tuning: Drop D
-----------------------------------------------------------------

Intro/Section 1
Both Guitars
e|--0---|
B|--0---|
G|--0---|
D|--0---|
A|--0---|
D|--0---|

e|-------------------------------|
B|-------------------------------|
G|-------------------------------|
D|-------------------------------|x3
A|-3h55555--3h55555--6---6-6---6-|
D|---------------------3-----3---|

(The low D string is hard to hear distinctly here but I think this sounds fine)
e|--------------------------------------|
B|--------------------------------------|
G|--------------------------------------|
D|------------------------------------6-|
A|-3h55555--3h55555-------------------6-|
D|------------------9p8p0-7p6p0-6p8p0-6-|

Section 2
Both Guitars
e|-------------------------------|
B|-------------------------------|
G|-------------------------------|
D|-------------------------------|x3
A|-3h55555--3h55555--6---6-6---6-|
D|---------------------3-----3---|

Guitar 1
e|------------------------------9h11b\--|
B|-----------------7h99999-9h11---------|
G|---------6h88888----------------------|
D|-6h88888------------------------------|
A|--------------------------------------|
D|--------------------------------------|

Guitar 2
e|--------------------------------------|
B|------------------------------6h8b\---|
G|-----------------3h55555-5h7----------|
D|---------3h55555----------------------|
A|-3h55555------------------------------|
D|--------------------------------------|

Section 3
Both Guitars
e|--------------------------------------------------------------|
B|--------------------------------------------------------------|
G|--------------------------------------------------------------|
D|-x--------------------------6--x-------8-6-4-6-(4-1---------)-|x2
A|-x-(x12)--------------------6--x-(x12)-8-6-4-6-(4-1-2nd-time)-|
D|-x--------9p8p0-7p6p0-6p8p0-6--x-------8-6-4-6-(4-1---------)-|

Section 2 (x1)
Section 3 (x1)

Section 4
Both Guitars
e|---------------|
B|---------------|
G|---------------|
D|--8-6-4-6-4-1--|x3
A|--8-6-4-6-4-1--|
D|--8-6-4-6-4-1--|

Not too sure on the lead guitar part here...
e|-----guitar 1---------------------|
B|-(6~----9--6b---5~)---------------|
G|-(------------6---)---------------|
D|--8~------------7~---////////////-|
A|--8~------------7~---/pick slide/-|
D|--8~------------7~---////////////-|

Section 5
Both Guitars
e|---------------------------------------------------------------12-12-|
B|---------------------------------------------------------------11-11-|
G|---------------------------------------------------------------10-10-|
D|-----------------gtr-1--(3-6)----------------------------------------|x2
A|---------------(3-5-0-5)-3-6-----------------------------------------|
D|-3-000000-(x3)--3-5-0-5-------3-000000-3-000000-3-00-3-00-3-00-------|

e|------12-12------12-12------|
B|------11-11------11-11------|
G|------10-10------10-10------|
D|------------------------0~--|
A|------------------------0~--|
D|-3-00-------3-00--------0~--|

Section 6 (x2)
Both Guitars
e|--------------------------------------------------------|
B|--------------------------------------------------------|
G|--------------------------------------------------------|
D|--------------------------------------------------------|
A|-3-0--0--0--5-3-6--6--6-5-3-5-3-0--0--0-5-3-6---0-0-0-0-|
D|-3-0--0--0--5-3-6--6--6-5-3-5-3-0--0--0-5-3-6---0-0-0-0-|
                        . . . .                   . . . .

                             1st Ending               2nd Ending
e|-----------------------|----------------|---------------------------------|
B|-----------------------|-------------6b-|---------------------------------|
G|-----------------------|-------------6b-|---------------------------------|
D|-----------------------|----------------|---------------------------------|
A|-----------------------|----------------|-----------------6-5-3-5-6-5-3-5-|
D|-3-0---5-3-6---6-5-3-5-|-3-0---5-3-6----|-3-0-0-0--5-3-6--6-5-3-5-6-5-3-5-|
                                                            . . . . . . . .
Section 7 (similar to Section 2)
Both Guitars
e|------------------------------------------------------------|
B|------------------------------------------------------------|
G|------------------------------------------------------------|
D|-----guitar-1---------------------------------------(7b)----|
A|-(3h55555--3h55555)--6---6-6---6--(3h55555-3h55555)--6b-(3)-|
D|-----------------------3-----3---------------------------3--|

e|-----------------------------------------------------------------(7h9b\)-|
B|--------------------------------------------------(7h99999)-(7h9)-6h8b\--|
G|-----------------------------------------(6h88888)-3h55555---5h7---------|
D|--------------------------------(6h88888)-3h55555------------------------|
A|-(3h55555-3h55555)--6---6-6---6--3h55555---------------------------------|
D|----------------------3-----3--------------------------------------------|

Section 3 (2nd time only)
Section 2 (x2)
Section 3 (Whole thing)

Outro
e|----------------------|
B|----------------------|
G|----------------------|
D|--x-------8-6-4-6-4-1-|
A|--x-(x36)-8-6-4-6-4-1-|
D|--x-------8-6-4-6-4-1-|
Tap to rate this tab
# A B C D E F G H I J K L M N O P Q R S T U V W X Y Z