Song name
# A B C D E F G H I J K L M N O P Q R S T U V W X Y Z

Every Time I Die - Drag King tab

-----------------------------------------------------------------
Drag King  Every Time I Die
-----------------------------------------------------------------
Tabbed by: Jake Miller (millarso)
Email: millarso2.0@gmail.com
Tuning: Drop D (D A D G B E)
-----------------------------------------------------------------
Intro/Riff 1

Both Guitars
e|------------------------------------|
B|------------------------------------|
G|------------------------------------|
D|------------------------------------| x2
A|-8-5--85--8--5-4---8-5--8-5-85-854--|
D|-8-5--85--8--5-4---8-5--8-5-85-854--|

Riff 2

Guitar 1
e|---------------------------------------------------------------|
B|---------------------------------------------------------------|
G|-15-15-15--12-12-12--11-11-11---15-15-15--12-12--11-11---------|
D|-15-15-15--12-12-12--11-11-11---15-15-15--12-12--11-11---------| x2
A|-13-13-13--10-10-10---9--9--9---13-13-13--10-10---9--9---------|
D|---------------------------------------------------------------|

Guitar 2
e|---------------------------------------------------------------|
B|---------------------------------------------------------------|
G|---------------------------------------------------------------|
D|-8-8-8--5-5-5--4-4-4----8-8-8--5-5--4-4------------------------|x2
A|-8-8-8--5-5-5--4-4-4----8-8-8--5-5--4-4------------------------|
D|-8-8-8--5-5-5--4-4-4----8-8-8--5-5--4-4------------------------|

Riff 1 x2
Riff 2 x2

Riff 3

Guitar 1
e|---------------------------------------------------------------|
B|---------------------------------------------------------------|
G|---------------------------------------------------------------|
D|------------------3--------------------------------------------|
A|-8-5--85--5-----3---5/7-----8-5--85----8\5---7p0---------------|
D|-8-5--85----3-0---------5---8-5--85--0-----0-----/8------------|

Guitar 2
e|---------------------------------------------------------------|
B|---------------------------------------------------------------|
G|---------------------------------------------------------------|
D|---------------------------------------------------------------|
A|-8-5--85--(guitar 1)--------8-5--85--(guitar 1)----------------|
D|-8-5--85--------------------8-5--85----------------------------|

Riff 4

Both Guitars
e|----------------------------------------------------------------|
B|----------------------------------------------------------------|
G|----------------------------------------------------------------|
D|-------------------------3--------------------------------------|
A|-0-0-0-8-5-0-0-0-5-----3---5/7---0-0-0-8-5-0-0-0---8\5---7p0----|
D|-0-0-0-8-5-0-0-0---3-0---------5-0-0-0-8-5-0-0-0-0-----0-----/8-|
   . . .     . . .                 . . .     . . .

e|------------------------------|
B|------------------------------|
G|----------------3p2p0-7-4/7---|
D|------------------------------|
A|-00000------0-0---------------|
D|-00000-8-5--0-0---------------|
   .....      . .              

e|------------------------------------------------------------------|
B|------------------------------------------------------------------|
G|------------------------------------------------------------------|
D|-0-------------------------3--------------------------------------|
A|-0-0-0-0-8-5-0-0-0-5-----3---5/7---0-0-0-8-5-0-0-0---8\5---7p0----|
D|-0-0-0-0-8-5-0-0-0---3-0---------5-0-0-0-8-5-0-0-0-0-----0-----/8-|
     . . .     . . .                 . . .     . . .

e|------------------------------|
B|------------------------------|
G|----------------3p2p0-7-4/7---|
D|------------------------------|
A|-00000------0-0---------------|
D|-00000-8-5--0-0---------------|
   .....      . .              

Riff 5

Guitar 1
e|-------------------------------------------------|
B|-------------------------------------------------|
G|----4/7p0-------3p2p0-7-4/7---------3p2p0-7-4/7--|
D|-5---------5-5---------------5-8-4---------------|x2
A|-5---------5-5---------------5-8-4---------------|
D|-5---------5-5---------------5-8-4---------------|

Guitar 2
e|--------------------------------------------------|
B|--------------------------------------2nd time----|
G|------------------------------------(3p2p0-7-4/7)-|
D|-5---------5-5---------------5-8-4----------------|x2
A|-5---------5-5---------------5-8-4----------------|
D|-5---------5-5---------------5-8-4----------------|

Riff 6

Both Guitars                           1st Ending     2nd Ending
e|-----------------------------------|-------------|--------------|
B|-----------------------------------|-------------|--------------|
G|----4/7p0-------3p2p0-7-4/7--------|-3p2p0-7-4/7-|--------------|
D|-5---------5-5---------------5-8-4-|-------------|--------------|
A|-5---------5-5---------------5-8-4-|-------------|-5-84-58-4b-0-|
D|-5---------5-5---------------5-8-4-|-------------|-5-84-58-4b-0-|

Riff 7

Guitar 1
e|------------------------------------------------------------|
B|------------------------------------------------------------|
G|------------------------------------------------------------|
D|------------------------------------------------12-15-11-12-|x2
A|-5-84-58-4-5-84-58-4b-0-5-84-58-4-5-84-58-4b-0--10-13--9-10-|
D|-5-84-58-4-5-84-58-4b-0-5-84-58-4-5-84-58-4b-0--------------|

Guitar 2
e|------------------------------------------------------------|
B|------------------------------------------------------------|
G|------------------------------------------------------------|
D|-------------------------------------------------5--8--4--5-|x2
A|-5-84-58-4-5-84-58-4b-0-5-84-58-4-5-84-58-4b-0---5--8--4--5-|
D|-5-84-58-4-5-84-58-4b-0-5-84-58-4-5-84-58-4b-0---5--8--4--5-|

Riff 8

Guitar 1
e|-------------------------------|
B|-------------------------------|
G|-------------------------------|
D|-------------------------------|x2
A|-------------------------7-5---|
D|-8-5-7-5-0-8-5-8-8-5-7-5-----8-|

Guitar 2
e|-------------------------------|
B|-------------------------------|
G|-------------------------------|
D|-------------------------------|x2
A|-----(guitar 1)----------7-5---|
D|-----------------------------8-|

Both Guitars
e|---------------------------------------------------------------|
B|---------------------------------------------------------------|
G|---------------------------------------------------------------|
D|---------------------------------------------------------------|x2
A|---------------------5---7---------------------------5---------|
D|-8-5-7-5-0-3-0-2-2-0---5---5-8---8-5-7-5-0-3-0-2-2-0---5-0000--|
                                                           ....

e|------------------------------------------------------------------------|
B|------------------------------------------------------------------------|
G|------------------------------------------------------------------------|
D|------------------------------------------------------------------------|
A|---------------------5---7------0-0-0---------------0-0-0---------------|
D|-8-5-7-5-0-3-0-2-2-0---5---5-8--0-0-0-8-5-00000-8-5-0-0-0-8-5-00000-8-5-|
                                  . . .     .....     . . .     .....

Riff 4 x1
Riff 6 x1 (both endings)
Riff 7 x1

Riff 9

Guitar 1
e|------------------------------|
B|-----6-----6/9-------9\-----5-|
G|---7-----7--------10------6---|
D|-7-----7-------10-------6-----|x2
A|------------------------------|
D|------------------------------|

Riff 10 (Difficult to tab because of the layers)

Both Guitars
e|-------------------------|  |--------------------|
B|-------------------------|  |--------------------|
G|-7-------10-------6------|  |-10--6--7--10--6--7-|
D|-5--------8-------4------|x4|-10--6--7--10--6--7-|
A|-5-(x12)--8-(x6)--4-(x6)-|  |--8--4--5---8--4--5-|
D|-5--------8-------4------|  |--------------------|

Guitar 1 (faint) x2
e|-----------------------------|  |--------------------|
B|-----6-----6-------9------5--|  |--------------------|
G|---7-----7------10------6----|  |-10--6--7--10--6--7-|
D|-7-----7-----10-------6------|x4|-10--6--7--10--6--7-|
A|-----------------------------|  |--8--4--5---8--4--5-|
D|-----------------------------|  |--------------------|

Guitar 2 (same as before) x2
e|-----------------------------|  |--------------------|
B|-----------------------------|  |--------------------|
G|-7-----------10-------6------|  |-10--6--7--10--6--7-|
D|-5------------8-------4------|x4|-10--6--7--10--6--7-|
A|-5-(x12)------8-(x6)--4-(x6)-|  |--8--4--5---8--4--5-|
D|-5------------8-------4------|  |--------------------|

Guitar 3 (maybe synth?, played on 2nd time with above parts)
e|-----------------------------|
B|-15----------18------14------|
G|--x-(x12)-----x-(x6)--x-(x6)-|
D|-12----------15------11------|x4
A|-----------------------------|
D|-----------------------------|

Outro

Both Guitars
e|------------------------|
B|------------------------|
G|-10--6--7--10--6--7-----|
D|-10--6--7--10--6--7--5~-| Fin.
A|--8--4--5---8--4--5--5~-|
D|---------------------5~-|

My 2nd tab ever, so let me know if it sucks. 
There are several points in the song where the guitars are tough to discern,
but I hope this gets in the right ballpark.
Thanks,
millarso
Tap to rate this tab
# A B C D E F G H I J K L M N O P Q R S T U V W X Y Z