Song name
# A B C D E F G H I J K L M N O P Q R S T U V W X Y Z

Every Time I Die - Holy Book Of Dilemma tab

-----------------------------------------------------------------
Holy Book of Dilemma  Every Time I Die
-----------------------------------------------------------------
Tabbed by: Jake Miller (millarso)
Email: millarso2.0@gmail.com
Tuning: Drop D (D A D G B E)
-----------------------------------------------------------------
Section I (x2)

  "Insect lust or insect love..."
e|---------------------------------------------------------------|
B|---------------------------------------------------------------|
G|---------------------------------------------------------------|
D|-------------------------------------------------3-5-3-8-------|
A|-5-------2-------2h3h5-----2-----5-------2-------3-5-3-8-------|
D|---3---0---3---0---------0---3-----3---0---3---0-3-5-3-8-------|

e|---------------------------------------------------------------|
B|---------------------------------------------------------------|
G|---------------------------------------------------------------|
D|---------------------------------------------3-5-3-8-5-3-------|
A|-5-------2-------------2-----5-------2-------3-5-3-8-5-3-------|
D|---3---0---3---0-3t-2t---3-----3---0---3---0-3-5-3-8-5-3-------|

Section II (x2)

 "There are laws built into..."
e|---------------------------------------------------------------|
B|---------------------------------------------------------------|
G|---------------------------------------------------------------|
D|-------------7-9---------------------7-9---8\------------------|
A|-3-2---5-3---5-7---5-8---3-2---5-3---5-7---8\------------------|
D|-3-2-----3---------5-8---3-2-----3---------8\------------------|

e|---------------------------------------------------------------|
B|---------------------------------------------------------------|
G|---------------------------------------------------------------|
D|-------------7-9---------------------0~--(2nd time only)-------|
A|-3-2---5-3---5-7---5-8---3-2---5-3---0~--|0-2-0-2-3-2|---------|
D|-3-2-----3---------5-8---3-2-----3---0~--|0-2-0---3-2|---------|

  "Animal art or..."
e|---------------------------------------------------------------|
B|---------------------------------------------------------------|
G|---------------------------------------------------------------|
D|---------------------------------------------------------------|
A|-5-------2-----------------------------------------------------|
D|---3---0---3-0-(drum fill)-------------------------------------|

Section III

  "Boot-legged thoughts or..."
e|---------------------------------------------------------------|
B|---------------------------------------------------------------|
G|---------------------------------------------------------------|
D|-------------------------------------------------3-5-3-8-------|
A|-5-------2-------2h3h5-----2-----5-------2-------3-5-3-8-------|
D|---3---0---3---0---------0---3-----3---0---3---0-3-5-3-8-------|

                   TPTPTPTP TPTPTPTP
e|---------------------------------------------------------------|
B|---------------------------------------------------------------|
G|---------------------------------------------------------------|
D|------------------------------------3-5-3-8-5-3-0~-------------|
A|-5-------2-----------5-------5------3-5-3-8-5-3-0~-------------|
D|---3---0---3--0--3-2---3--3-2---3---3-5-3-8-5-3-0~-------------|

  "Our mathematics and faiths..."             "...devolve"
e|---------------------------------------------------------------|
B|---------------------------------------------------------------|
G|---------------------------------------------------------------|
D|-(0~)--------------------------------------------------2-------|
A|-(0~)--------------------------------------------0-2-0-2-------|
D|-(0~)--------------------------------------------0-2-0---------|

Section IV (Repeat with variations until fade out)

  "Separate hearts are the whole of the law..."
e|---------------------------------------------------------------|
B|---------------------------------------------------------------|
G|---------------------------------------------------------------|
D|--------------7-9~----------------------7-9~-------------------|
A|-3-2~---5-----5-7~----------3-2~--5-----5-7~--8~---------------|
D|-3-2~-----3~---------5-8~---3-2~----3~--------8~---------------|

e|---------------------------------------------------------------|
B|---------------------------------------------------------------|
G|---------------------------------------------------------------|
D|--------------7-9~----------------------7-9~-------------------|
A|-3-2~---5-----5-7~----------3-2~--5-----5-7~--8~---------------|
D|-3-2~-----3~---------5-8*---3-2~----3~--------8~---------------|

My first tab. Please let me know if I did a crap job or not.
Tap to rate this tab
# A B C D E F G H I J K L M N O P Q R S T U V W X Y Z