Song name
# A B C D E F G H I J K L M N O P Q R S T U V W X Y Z

Every Time I Die - The Low Road Has No Exits tab

-----------------------------------------------------------------
The Low Road Has No Exits - Every Time I Die
-----------------------------------------------------------------
Tabbed by: Jake Miller (millarso)
Email: millarso2.0@gmail.com
Tuning: Drop D
-----------------------------------------------------------------

Intro
e|-----------------|
B|-----------------|
G|-----------------|
D|-3-1-3-1-3-1-3-1-|
A|-3-1-3-1-3-1-3-1-|
D|-3-1-3-1-3-1-3-1-|

Section 1
e|---------------------------------------------------------------------|
B|---------------------------------------------------------------------|
G|-----------------0-5-7-----8-----5-----------------------------------|
D|---------0-7-8-0-----------7-----4-----------------6-5-7-5-----------|
A|-TP------------------------6-----3-0-5-7-8-0-6-8-9---------7p5p0-3-5-|
D|--0-(x16)--------------000---000-------------------------------------|
    .                    ...   ...
e|-------------------------------------------------------------------|
B|-------------------------------------------------------------------|
G|-----------------0-5-7-----8-----5---------------------------------|
D|---------0-7-8-0-----------7-----4-----------------6-5-7-5-3-1-3-1-|
A|-TP------------------------6-----3-0-5-7-8-0-6-8-9---------3-1-3-1-|
D|--0-(x16)--------------000---000---------------------------3-1-3-1-|

e|-----------------------------------------------------------------------|
B|-----------------------------------------------------------------------|
G|-----------------0-5-7-----8-----5-------------------------------------|
D|---------0-7-8-0-----------7-----4-----------------6-5-7-5--1-guitar---|
A|-TP------------------------6-----3-0-5-7-8-0-6-8-9--------(--0-3h5p0-)-|
D|--0-(x16)--------------000---000--------------------------(0---------)-|

e|-----------------------------------------------------------|
B|-----------------------------------------------------------|
G|-----------------0-5-7-----8-----5-------------------------|
D|---------0-7-8-0-----------7-----4-----------------6-5-7-5-|
A|-TP------------------------6-----3-0-5-7-8-0-6-8-9---------|
D|--0-(x16)--------------000---000---------------------------|

Section 2
e|---------------------------|
B|--4-----------4------------|
G|--2-----------2------------|
D|----3-1-4-1-0---3-1-4-1-0--|
A|----3-1-4-1-0---3-1-4-1-0--|
D|----3-1-4-1-0---3-1-4-1-0--|

Section 3
e|---------------------------------------------------------------------|
B|---------------------------------------------------------------------|
G|-------8-------------------------8---------------------8-------------|
D|-------7-------------------------7---------------------7---3---4---1-|
A|-------6-------------0h3h5-------6-------------0h3h5---6---3---4---1-|
D|-0-0-0---0-0-0-0h3h5-------0-0-0---0-0-0-0h3h5-------0---0-3-0-4-0-1-|

e|-----------------------------------------------------------------|
B|-----------------------------------------4-----------4-----------|
G|-------8-------------------------8-------2-----------2-----------|
D|-------7-------------------------7---------3-1-4-1-0---3-1-4-1-0-|
A|-------6-------------0h3h5-------6---------3-1-4-1-0---3-1-4-1-0-|
D|-0-0-0---0-0-0-0h3h5-------0-0-0---0-0-0---3-1-4-1-0---3-1-4-1-0-|

Section 2 (x1)

Transition
e|---------------------------|
B|---------------------------|
G|-------8-------------------|
D|-------7-------------------|
A|-------6-------------------|
D|-0-0-0---0-0---(drum fill)-|
   . . .   . .

Section 1 (x1)
Section 2 (x2)

Section 4
Guitar 1
e|----------------------------------------------|
B|----------------------------------------------|
G|-------8b-------------------8b--------14b-----|
D|-------7b-------------------7b-----0--13b-(0)-|x2
A|-0-0-0-6b-0-0---------0-0-0-6b-0-0-0--12b-(0)-|
D|-0-0-0----0-0-3-1-4-1-0-0-0----0-0-0------(0)-|
   . . .    . .         . . .    . . 

Guitar 2
e|----------------------------------------------|
B|----------------------------------------------|
G|---------------------------------------5b-----|
D|-----------------------------------0---4b-(0)-|x2
A|-0-0-0----0-0---------0-0-0----0-0-0---3b-(0)-|
D|-0-0-0----0-0---------0-0-0----0-0-0------(0)-| (Play the open D every 2nd time)
   . . .    . .         . . .    . . 

Guitar 1
e|----------------------------------------------|
B|----------------------------------------------|
G|-------8b-------------------8b--------14b-----|
D|-------7b-------------------7b-----0--13b-(0)-|x4
A|-0-0-0-6b-0-0---------0-0-0-6b-0-0-0--12b-(0)-|
D|-0-0-0----0-0-3-1-4-1-0-0-0----0-0-0------(0)-|
   . . .    . .         . . .    . . 

Guitar 2
e|----------------------------------------------|
B|----------------------------------------------|
G|-------8b-------------------8b---------5b-----|
D|-------7b-------------------7b-----0---4b-(0)-|x4
A|-0-0-0-6b-0-0---------0-0-0-6b-0-0-0---3b-(0)-|
D|-0-0-0----0-0-3-1-4-1-0-0-0----0-0-0------(0)-|
   . . .    . .         . . .    . . 

Conclusion/Section 5
e|-------|
B|-------|
G|-------|
D|-4-3-1-|
A|-4-3-1-|
D|-4-3-1-|
Tap to rate this tab
# A B C D E F G H I J K L M N O P Q R S T U V W X Y Z