Song name
# A B C D E F G H I J K L M N O P Q R S T U V W X Y Z

Every Time I Die - A Wild Shameless Plain tab

-----------------------------------------------------------------
A Wild, Shameless Plain - Every Time I Die
-----------------------------------------------------------------
Tabbed by: Jake Miller (millarso)
Email: millarso2.0@gmail.com
Tuning: Drop D
-----------------------------------------------------------------

Intro
Guitar 1
e|-----------------------------------|
B|-----------------------------------|
G|-----------------------------------|
D|-------------6-8--------------6-8--|
A|-------------4-6--------------4-6--|
D|-----------------------------------|

Guitar 2
e|-----------------------------------|
B|-----------------------------------|
G|-----------------------------------|
D|-0-0-0-0-0-0------0-0-0-0-0-0------|
A|-0-0-0-0-0-0-(x4)-0-0-0-0-0-0-(x4)-|
D|-0-0-0-0-0-0------0-0-0-0-0-0------|
   . . . . . .      . . . . . .

Section 1
Both Guitars
e|---------------------------------------------|
B|---------------------------------------------|
G|---------------------------------------------|
D|-000-0-0-0-0-0-0-0-0-0-3--3-6--6-5--3-5--6-5-|
A|-000-0-0-0-0-0-0-0-0-0-3--3-6--6-5--3-5--6-5-|
D|-000-0-0-0-0-0-0-0-0-0-3--3-6--6-5--3-5--6-5-|
   ... . . . . . . . . .

Guitar 1
e|--------------------------------------------------------------------|
B|--------------------------------------------------------------------|
G|-----------------------------/7-9-7-------------------5-5-5-8-8-6-8-|
D|-000-0-0-0-0-0-0-0-0-0-------/9-9-9-------5-5-5-6-6-6-5-5-5-8-8-6-8-|
A|-000-0-0-0-0-0-0-0-0-0--------------------5-5-5-6-6-6-3-3-3-6-6-4-6-|
D|-000-0-0-0-0-0-0-0-0-0--------------------5-5-5-6-6-6---------------|
   ... . . . . . . . . .

Guitar 2
e|--------------------------------------------------------------------|
B|--------------------------------------------------------------------|
G|------------------------------------------------------5-5-5-8-8-6-8-|
D|-000-0-0-0-0-0-0-0-0-0--------------------5-5-5-6-6-6-5-5-5-8-8-6-8-|
A|-000-0-0-0-0-0-0-0-0-0----------------8---5-5-5-6-6-6-3-3-3-6-6-4-6-|
D|-000-0-0-0-0-0-0-0-0-0-5-8-5--------5---6-5-5-5-6-6-6---------------|
   ... . . . . . . . . .

Both Guitars
e|---------------------------------------------|
B|---------------------------------------------|
G|---------------------------------------------|
D|-000-0-0-0-0-0-0-0-0-0-3--3-6--6-5--3-5--6-5-|
A|-000-0-0-0-0-0-0-0-0-0-3--3-6--6-5--3-5--6-5-|
D|-000-0-0-0-0-0-0-0-0-0-3--3-6--6-5--3-5--6-5-|
   ... . . . . . . . . .

Both Guitars
e|-----------------------------------------------|
B|-----------------------------------------------|
G|---------------------6-8-----------------------|
D|-000-0-0-0-0-0-0-0-0-6-8-000-0-0-0-0-0-0-0-0-0-|
A|-000-0-0-0-0-0-0-0-0-4-6-000-0-0-0-0-0-0-0-0-0-|
D|-000-0-0-0-0-0-0-0-0-----000-0-0-0-0-0-0-0-0-0-|
   ... . . . . . . . .     ... . . . . . . . . .

Section 2
Both Guitars                                  Additional Ending
e|------------------------------------|  |---------------------------------|
B|------------------------------------|  |---------------------------------|
G|-5-6-6-9----------------------------|  |---------------------------------|
D|-5-6-6-9---10-11-10-7-10-7-10---3-6-|x2|-10-11-10-7-10-7-10-11-10-7-10-7-|
A|-3-4-4-7---10-11-10-7-10-7-10---3-6-|  |-10-11-10-7-10-7-10-11-10-7-10-7-|
D|-----------10-11-10-7-10-7-10---3-6-|  |-10-11-10-7-10-7-10-11-10-7-10-7-|

Section 3
Both Guitars
e|-------1---------------------1-----------------|
B|-----------------------------------------------|
G|---2-----2---5-6-6-9-9---2-----2---5-6-5-2-5-2-|
D|-4---4-----4-5-6-6-9-9-4---4-----4-5-6-5-2-5-2-|
A|-------------3-4-4-7-7-------------3-4-3-0-3-0-|
D|-----------------------------------------------|

Guitar 1
e|-------1---------------------------------------|
B|-----------------------0-3---0-3---------------|
G|---2-----2---5-6-6-9-9-----3-----3-5-6-5-2-5-2-|
D|-4---4-----4-5-6-6-9-9-------------5-6-5-2-5-2-|
A|-------------3-4-4-7-7-------------3-4-3-0-3-0-|
D|-----------------------------------------------|

Guitar 2
e|-------1---------------------1-----------------|
B|-----------------------------------------------|
G|---2-----2---5-6-6-9-9---2-----2---5-6-5-2-5-2-|
D|-4---4-----4-5-6-6-9-9-4---4-----4-5-6-5-2-5-2-|
A|-------------3-4-4-7-7-------------3-4-3-0-3-0-|
D|-----------------------------------------------|

Both Guitars
e|-------1---------------------1-----------------|
B|-----------------------------------------------|
G|---2-----2---5-6-6-9-9---2-----2---5-6-5-2-5-2-|
D|-4---4-----4-5-6-6-9-9-4---4-----4-5-6-5-2-5-2-|
A|-------------3-4-4-7-7-------------3-4-3-0-3-0-|
D|-----------------------------------------------|

If the section above is difficult, it might be worth dropping the high e string to an e flat,
so you can play a 0 on the high string instead.
This is much easier this way and the high string is not used the rest of the song.

Play Section 2 again without additional ending

Section 4
Both Guitars
e|-------------------------------------------------|
B|-------------------------------------------------|
G|-6-8---------------------------------------------|
D|-6-8-000-0-0-0-0-0-0-0-0-0-0-0-0-0-0-0-0-0-0-0-0-|
A|-4-6-000-0-0-0-0-0-0-0-0-0-0-0-0-0-0-0-0-0-0-0-0-|
D|-----000-0-0-0-0-0-0-0-0-0-0-0-0-0-0-0-0-0-0-0-0-|
       ... . . . . . . . . . . . . . . . . . . . .

e|-------------------------------------------------|
B|-------------------------------------------------|
G|-6-8---------------------------------------------|
D|-6-8-000-0-0-0-0-0-0-0-0-0-0-0-0-0-0-0-0-0-0-0-0-|
A|-4-6-000-0-0-0-0-0-0-0-0-0-0-0-0-0-0-0-0-0-0-0-0-|
D|-----000-0-0-0-0-0-0-0-0-0-0-0-0-0-0-0-0-0-0-0-0-|
       ... . . .   . . . . . . . . . . . . . . . .
(Take note of the unmuted note above)

e|-------------------------------------------------|
B|-------------------------------------------------|
G|-6-8---------------------------------------------|
D|-6-8-000-0-0-0-0-0-0-0-0-0-0-0-0-0-0-0-0-0-0-0-0-|
A|-4-6-000-0-0-0-0-0-0-0-0-0-0-0-0-0-0-0-0-0-0-0-0-|
D|-----000-0-0-0-0-0-0-0-0-0-0-0-0-0-0-0-0-0-0-0-0-|
       ... . . . . . . . . . . . . . . . . . . . .

e|-------------------------------------------------|
B|-------------------------------------------------|
G|-6-8---------------------------------------------|
D|-6-8-000-0-0-0-0-0-0-0-0-0-3--3-6--6-5--3-5--6-5-|
A|-4-6-000-0-0-0-0-0-0-0-0-0-3--3-6--6-5--3-5--6-5-|
D|-----000-0-0-0-0-0-0-0-0-0-3--3-6--6-5--3-5--6-5-|
       ... . . .   . . . . .

A good tip for this song: when riding that muted open D power chord think of them in 
groups of 3 or 6
because the song is written in either 3/4 or 3/8 time if I'm not mistaken.

This is it for the standard edition songs from Ex Lives. I'll be working on the deluxe 
edition bonuses soon. Rate and comment,
millarso
Tap to rate this tab
# A B C D E F G H I J K L M N O P Q R S T U V W X Y Z