Song name
# A B C D E F G H I J K L M N O P Q R S T U V W X Y Z

Every Time I Die - Grudge Music tab

-----------------------------------------------------------------
Grudge Music - Every Time I Die
-----------------------------------------------------------------
Tabbed by: Jake Miller (millarso)
Email: millarso2.0@gmail.com
Tuning: Drop D

Intro/Section 1
e|------------------------------------------------------|
B|----------------------------------------(guitar 1)----|
G|-------------------------------------(<5><5><5><5><5>)|
D|---5-----------4-----------3--------------------------|x2
A|---------5-4---------4-3---------3-2---5--5--5--5--5--|
D|-0---6-0-----0---5-0-----0---4-0-----0----------------|

Section 2
e|----------------------------|
B|----------------------------|
G|----------------------------|
D|-8s9---8s9---9s11---11s10---|x4
A|-8s9---8s9---9s11---11s10---|
D|-8s9-0-8s9-0-9s11-0-11s10-0-|

Section 3
e|-------------------------|
B|-------------------------|
G|-------------------------|
D|-6s5---6s5---3s5---3-0---|x3
A|-6s5---6s5---3s5---3-0---|
D|-6s5-0-6s5-0-3s5-0-3-0-0-|

e|----------------|
B|----------------|
G|-----------(<5>)|
D|-6s5---6s5------|
A|-6s5---6s5---5--|
D|-6s5-0-6s5-0----|

Section 1 x1

Section 4
Guitar 1
e|----------------------------|
B|----------------------------|
G|----------------------------|
D|-8s9---8s9---9s11---11s10---|x3
A|-8s9---8s9---9s11---11s10---|
D|-8s9-0-8s9-0-9s11-0-11s10-0-|

Guitar 2
e|----------------------------|
B|----------------------------|
G|----------------------------|
D|-------------9s11---11s10---|x3
A|-------------9s11---11s10---|
D|-------------9s11-0-11s10---|

Guitar 1
e|-----------------|
B|-----------------|
G|-----------------|
D|-8s9---8s9-------|
A|-8s9---8s9-------|
D|-8s9-0-8s9-0/18~-|

Guitar 2
e|-----------------|
B|-----------------|
G|-----------------|
D|-----------------|
A|-----------------|
D|-----------0/18~-|

Section 3 x1
Section 1 x1

e|---------------|
B|---------------|
G|-(<5>)---------|
D|------let-ring-|
A|---5~----------|
D|---------------|

Section 5
Guitar 1
e|---------------------------------------------------|
B|---------------------------------------------------|
G|---------------------------------------------------|
D|---5-----------5------5------5---------------------|x2
A|---------5~------------------------5~------5-----4-|
D|-0---6-0-----0---6--0---6--0---6-0-----0-3---0-2---|

Guitar 2
e|---------------------------------------------------|
B|---------------------------------------------------|
G|---------------------------------------------------|
D|---------------------------------------------------|x2
A|-0-----------0-------------0---------------5-----4-|
D|-0-----------0-------------0-----------0-3---0-2---|

Section 6
Both Guitars
e|---------------------------------------------------|
B|---------------------------------------------------|
G|---------------------------------------------------|
D|---3-----------3------3------3---------------------|x2
A|---------3~------------------------3~------3-----2-|
D|-0---4-0-----0---4--0---4--0---4-0-----0-4---0-3---|

Section 4 x1
Section 3 x1
Section 1 x1
Section 6 x1

End with...
Guitar 1
e|---------------|
B|---------------|
G|-----5-----4---|
D|-0-4---0-3---0-|
A|-------------0-|
D|-------------0-|

e|---------------|
B|---------------|
G|---------------|
D|-------------0-|
A|-----3-----2-0-|
D|-0-4---0-3---0-|

Please rate & comment!
Thanks,
millarso
Tap to rate this tab
# A B C D E F G H I J K L M N O P Q R S T U V W X Y Z