Song name
# A B C D E F G H I J K L M N O P Q R S T U V W X Y Z

Every Time I Die - Underwater Bimbos From Outer Space tab

-----------------------------------------------------------------
Underwater Bimbos From Outer Space - Every Time I Die
-----------------------------------------------------------------
Tabbed by: Jake Miller (millarso)
Email: millarso2.0@gmail.com
Tuning: Drop D

SECTION 1 (x2)
e|--------------------------------------------|--------------------------------------------|
B|--------------------------------------------|-------------play-1st-time-only-------------|
G|--------------------------------------------|--------------------------------------------|
D|--------------------------------------------|--------------------------------------------|
A|--------------------------------------------|--------------------------------------------|
D|-13-0-15-14-0-15-14-13-0-14-13-0-15-14-13-0-|-13-14-15-0-14-13-0-15-0-14-13-0-15-14-13-0-|

SECTION 2
e|-----------------------------------------------------------------|
B|-----------------------------------------------------------------|
G|-----------------------------------------------------------------|
D|-----------------------------------------------------------------|x2
A|-----------------------------------------------------------------|
D|-1-0-3-2-0-3-2-1-0-2-1-0-3-2-1-0-1-2-3-0-2-1-0-3-0-2-1-0-3-2-1-0-|

SECTION 3
e|---------------------------------------------------------------------------------------|
B|---------------------------------------------------------------------------------------|
G|---------------------------------------------------------------------------------------|
D|---------------------------------------------------------------------------------------|x2
A|---------------------------------------------------------------------------------------|
D|-13-0-15-14-0-15-14-13-0-14-13-0-15-14-13-0-13-14-15-0-14-13-0-15-0-14-13-0-15-14-13-0-|

SECTION 4
e|------------------------------------------------|
B|------------------------------------------------|
G|------------------------------------------------|
D|----------------------------------------6-------|
A|--------6----------6----------6-----------------|
D|-(bass)---3-(bass)---3-(bass)---0-6-7-8---8-7-6-|

SECTION 5 (x2)
e|---------------------------------|  |-------------------|
B|---------------------------------|  |-------------------|
G|---------------------------------|  |-------------------|
D|---13-15---15-13---13-15---------|x3|-----------6-------|
A|-0-13-15-0-15-13-0-13-15-0-18----|  |-------------------|
D|-0-13-15-0-15-13-0-13-15-0----15-|  |---0-6-7-8---8-7-6-|

SECTION 6
e|------------------------------------------------------------------------|
B|------------------------------------------------------------------------|
G|-----------------2-------------2------------------2-----------------2-4-|
D|---------3-------2-------------2----------3-------2---------3-------2-4-|x4
A|-----------------0-------0-----0------------------0-----------------0-2-|
D|-2-3-4-0---4-2-4---2-3-4---4-3----2-3-4-0---4-2-4---2-3-4-0---4-2-4-----|

Make sure to hold the last two notes longer the 2nd and 4th time through the riff above.

Transition
Guitar 1
e|---------------------------------|
B|---------------------------------|
G|---------------------------------|
D|---------1-1-3-2-----2-1-0-3-----|
A|-0-0-0-0-1-1-3-2-0-0-2-1-0-3-0-0-|
D|-0-0-0-0-1-1-3-2-0-0-2-1-0-3-0-0-|
   . . . .         . .         . .

Guitar 2
e|---------------------------------|
B|---------------------------------|
G|---------------------------------|
D|---------------------------------|
A|-0-0-0-0---------0-0---------0-0-|
D|-0-0-0-0---------0-0---------0-0-|
   . . . .         . .         . .

SECTION 7
e|-----------------------------------------------------------------|
B|-----------------------------------------------------------------|
G|-----------------------------------------------------6-----------|
D|---------1-1-3-2-----2-1-0-3-----2-1-----1-1-3-2-----6-8-7-6-----|x2
A|-0-0-0-0-1-1-3-2-0-0-2-1-0-3-0-0-2-1-0-0-1-1-3-2-0-0---8-7-6-0-0-|
D|-0-0-0-0-1-1-3-2-0-0-2-1-0-3-0-0-2-1-0-0-1-1-3-2-0-0---8-7-6-0-0-|
   . . . .         . .         . .     . .         . .         . .

Guitar 1
e|-----------------------------------------------------------------|
B|-----------------------------------------------------------------|
G|-----------------------------------------------------6-----------|
D|---------1-1-3-2-----2-1-0-3-----2-1-----1-1-3-2-----6-8-7-6-----|x2
A|-0-0-0-0-1-1-3-2-0-0-2-1-0-3-0-0-2-1-0-0-1-1-3-2-0-0---8-7-6-0-0-|
D|-0-0-0-0-1-1-3-2-0-0-2-1-0-3-0-0-2-1-0-0-1-1-3-2-0-0---8-7-6-0-0-|
   . . . .         . .         . .     . .         . .         . .

Guitar 2
e|-----------------------------------------------------------------|
B|-----------------------------------------------------------------|
G|-----------------------------------------------------------------|
D|-----------------------------------------------------------------|x2
A|-0-0-0-0---------------------0-0-----0-0---------------------0-0-|
D|-0-0-0-0---------------------0-0-----0-0---------------------0-0-|
   . . . .                     . .     . .                     . .

REPEAT SECTION 5 (x2)
But slow down last part and bend last note (listen to track at 1:52)

SECTION 8 (tempo drops way down)
Guitar 1
e|-----------------------------------------------------------------19----|
B|------------------------------------------------------------------x----|
G|-----------------------------------------------------6-----------16b18-|
D|-----------------------------------------------------6-8-7-6-----------|x4
A|-0-0-0-0---------0-0---------0-0-----0-0---------0-0---8-7-6-0-0-------|
D|-0-0-0-0-1-1-3-2-0-0-2-1-0-3-0-0-2-1-0-0-1-1-3-2-0-0---8-7-6-0-0-------|
   . . . .         . .         . .     . .         . .         . .

Guitar 2
e|---------------------------------------------------------------------|
B|-----------------------------------------------------------------6b8-|
G|-----------------------------------------------------6---------------|
D|-----------------------------------------------------6-8-7-6---------|x4
A|-0-0-0-0---------0-0---------0-0-----0-0---------0-0---8-7-6-0-0-----|
D|-0-0-0-0-1-1-3-2-0-0-2-1-0-3-0-0-2-1-0-0-1-1-3-2-0-0---8-7-6-0-0-----|
   . . . .         . .         . .     . .         . .         . .

Some of the riffs are long and easy to get lost in so try to memorize them in patterns.
It helps immensely.
Please rate & comment.
Thanks,
millarso
Tap to rate this tab
# A B C D E F G H I J K L M N O P Q R S T U V W X Y Z