Song name
# A B C D E F G H I J K L M N O P Q R S T U V W X Y Z

Every Time I Die - Organ Grinder tab

-----------------------------------------------------------------
Organ Grinder - Every Time I Die
-----------------------------------------------------------------
Tabbed by: millarso (Jake Miller)
Email: millarso2.0@gmail.com
Tuning: Drop D

Intro (weird effect here, the first chord is maybe just looped)
|Guitar 1
|e|----------------------------------------------|
|B|----------------------------------------------|
|G|----------3b4r3-------3b4r3-------3b4r3-------|
|D|-2--------x-----------x-----------x-----------|
|A|-2--------1b2r1-------1b2r1-------1b2r1-------|
|D|-2--------------------------------------------|
|
|Guitar 2
|e|----------------------------------------------|
|B|----------------------------------------------|
|G|----------------------------------------------|
|D|-2--2--2--2--2--2--2--2--2--2--2--2--2--2--2--|
|A|-2--2--2--2--2--2--2--2--2--2--2--2--2--2--2--|
|D|-2--2--2--2--2--2--2--2--2--2--2--2--2--2--2--|

|Guitar 1
|e|----------------------------------------------|
|B|----------------------------------------------|
|G|----------5b6r5-------5b6r5-------5b6r5-------|
|D|-4--------x-----------x-----------x-----------|
|A|-4--------3b4r3-------3b4r3-------3b4r3-------|
|D|-4--------------------------------------------|
|
|Guitar 2
|e|----------------------------------------------|
|B|----------------------------------------------|
|G|----------------------------------------------|
|D|-4--4--4--4--4--4--4--4--4--4--4--4--4--4--4--|
|A|-4--4--4--4--4--4--4--4--4--4--4--4--4--4--4--|
|D|-4--4--4--4--4--4--4--4--4--4--4--4--4--4--4--|

SECTION 1
Guitar 1
e|------------------------------------------------------------------------3--3--------------|
B|------------------------------------------------------------------------x--x--------------|
G|-2-5-----2-5-5--------------8-8-8---------3-5-6--6----------------------1--1--------------|
D|-2-5-3-2-2-5-5-0-2-3-2-1-2--8-8-8--2-2-2--3-5-6--6--6-5-4-2-3--1-1-2-2------------------0-|
A|-----3-2-------0-2-3-2-1-2--6-6-6--2-2-2--1-3-4--4--6-5-4-2-3--1-1-2-2------------------0-|
D|-----3-2-------0-2-3-2-1-2---------2-2-2------------6-5-4-2-3--1-1-2-2-------(feedback)-0-|

SECTION 2
Both Guitars
e|------------------------------------------------------------------------3--3-|
B|------------------------------------------------------------------------x--x-|
G|-2-5-----2-5-5--------------8-8-8---------3-5-6--6----------------------1--1-|
D|-2-5-3-2-2-5-5-0-2-3-2-1-2--8-8-8--2-2-2--3-5-6--6--6-5-4-2-3--1-1-2-2-------|x2
A|-----3-2-------0-2-3-2-1-2--6-6-6--2-2-2--1-3-4--4--6-5-4-2-3--1-1-2-2-------|
D|-----3-2-------0-2-3-2-1-2---------2-2-2------------6-5-4-2-3--1-1-2-2-------|

e|--------------------------|
B|--------------------------|
G|--------------------------|
D|------------10\8----------|
A|--TP---------8\6-10-9-8-6-|
D|-2222-(x12)------10-9-8-6-|

SECTION 3
|Guitar 1
|e|------------------------------------------------------------|
|B|------------------------------------------------------------|
|G|-------13------10---------------------13--------------------|
|D|--------x---------13-10-9-10-9~--------x------10\8----------|x4
|A|-------11-----------------------0-0-0-11-------8\6-10-9-8-6-|
|D|-0-0-0-----0-0------------------0-0-0-----0-0------10-9-8-6-|
|                                  . . .  
|Guitar 2
|e|-------------------------------------------------------|
|B|-------------------------------------------------------|
|G|-------------------------------------------------------|
|D|-------6-------8-6----------------6------10\8----------|x4
|A|-------------------8-6-8-6~-0-0-0---------8\6-10-9-8-6-|
|D|-0-0-0-----0-0--------------0-0-0----0-0------10-9-8-6-|
                              . . .  

TRANSITION
Both Guitars
e|--------------|
B|--------------|
G|--------------|
D|-10-9-8-6-3-1-|
A|-10-9-8-6-3-1-|
D|-10-9-8-6-3-1-|

SECTION 4
Both Guitars
e|----------------------------------------------------------|
B|-------8--------8----------8--------8---------------------|
G|-------x--------x----------x--------x---------------------|
D|-6-5-0-6--0-6-0-6--6-5-4-0-6--6-5-0-6--0-6-0-6-5-4-2-3-1--|x2
A|-6-5-0----0-6-0----6-5-4-0----6-5-0----0-6-0-6-5-4-2-3-1--|
D|-6-5-0----0-6-0----6-5-4-0----6-5-0----0-6-0-6-5-4-2-3-1--|

SECTION 5
Both Guitars
e|-----------------------------|
B|-----------------------------|
G|-------5--------5----------5-|
D|-------4--------4----------4-|x3
A|-------3--------3----------3-|
D|-3-2-0----0-3-0----3-2-1-0---|

e|----------------------------|
B|----------------------------|
G|-------5--------------------|
D|-------4--------6-5-4-2-3-1-|
A|-------3--------6-5-4-2-3-1-|
D|-3-2-0----0-3-0-6-5-4-2-3-1-|

REPEAT SECTION 5

TRANSITION 2 (lo-fi distortion)
Guitar 2
e|---------0-|
B|---------0-|
G|---------0-|
D|-2-------0-|
A|-2-(x29)-0-|
D|-2-------0-|

SECTION 6
|Extra Guitar (The bend return comes on the first note of the next repeat)
|e|---------------------------------|
|B|---------------------------------|
|G|-------------------------3b4r3---|
|D|-------------------------x-------|x3
|A|-------------------------1b2r1---|
|D|---------------------------------|
|
|Guitar 1
|e|---------------------------------|
|B|---------------------------------|
|G|-9-9-9-9-----9-9-9---9-9-9-9-9---|
|D|-8-8-8-8-----8-8-8---8-8-8-8-8---|x3
|A|-7-7-7-7-----7-7-7---7-7-7-7-7---|
|D|---------------------------------|
|
|Guitar 2 (keeps strumming this one chord)
|e|---------------------------------|
|B|---------------------------------|
|G|---------------------------------|
|D|-2-2-2-2-2-2-2-2-2-2-2-2-2-2-2-2-|x3
|A|-2-2-2-2-2-2-2-2-2-2-2-2-2-2-2-2-|
|D|-2-2-2-2-2-2-2-2-2-2-2-2-2-2-2-2-|

|Guitar 1
|e|------------------------------|
|B|------------------------------|
|G|-9-9-9-9-----9-9--------------|
|D|-8-8-8-8-----8-8-\\\\\\\\\\\\-|
|A|-7-7-7-7-----7-7-\pick-slide\-|
|D|-----------------\\\\\\\\\\\\-|
|
|Guitar 2
|e|------------------------------|
|B|------------------------------|
|G|------------------------------|
|D|-2-2-2-2-2-2-2-2-\\\\\\\\\\\\-|
|A|-2-2-2-2-2-2-2-2-\pick-slide\-|
|D|-2-2-2-2-2-2-2-2-\\\\\\\\\\\\-|

REPEAT SECTION 3

REPEAT TRANSITION 1

REPEAT SECTION 4 but replace last power chords with...
e|-----------------|
B|-----------------|
G|-----------------|
D|-6-5-3-2-3-2-1-0-|
A|-6-5-3-2-3-2-1-0-|
D|-6-5-3-2-3-2-1-0-|

TRANSITION 3
Guitar 1
|e|---------|
|B|---------|
|G|-9-------|
|D|-x-(x16)-|
|A|-7-------|
|D|---------|
|
|Guitar 2
|e|---------|
|B|---------|
|G|---------|
|D|-2-------|
|A|-2-(x16)-|
|D|-2-------|

SECTION 7
|Extra Guitar (The bend return comes on the first note of the next repeat)
|e|-------------------------8b9r8---|
|B|-------------------------x-------|
|G|-------------------------5b6r5---|
|D|---------------------------------|x3
|A|---------------------------------|
|D|---------------------------------|
|
|Guitar 1
|e|---------------------------------|
|B|---------------------------------|
|G|-5-5-5-5-----5-5-5---5-5-5-5-5---|
|D|-4-4-4-4-----4-4-4---4-4-4-4-4---|x2
|A|-3-3-3-3-----3-3-3---3-3-3-3-3---|
|D|---------------------------------|
|
|Guitar 2 (keeps strumming this one chord)
|e|---------------------------------|
|B|---------------------------------|
|G|---------------------------------|
|D|-4-4-4-4-4-4-4-4-4-4-4-4-4-4-4-4-|x2
|A|-4-4-4-4-4-4-4-4-4-4-4-4-4-4-4-4-|
|D|-4-4-4-4-4-4-4-4-4-4-4-4-4-4-4-4-|

|Guitar 1
|e|-------------------------------------------------------------------------|
|B|-------------------------------------------------------------------------|
|G|-9-9-9-9-----9-9-9---9-9-9-9-9---12-12-12-12-12-12-12-12-12--------------|
|D|-8-8-8-8-----8-8-8---8-8-8-8-8---11-11-11-11-11-11-11-11-11-(echo-delay)-|
|A|-7-7-7-7-----7-7-7---7-7-7-7-7---10-10-10-10-10-10-10-10-10--------------|
|D|-------------------------------------------------------------------------|
|
|Guitar 2
|e|-------------------------------------------------|
|B|-------------------------------------------------|
|G|-------------------------------------------------|
|D|-4-4-4-4-4-4-4-4-4-4-4-4-4-4-4-4-4-4-4-4-4-4-4-4-|
|A|-4-4-4-4-4-4-4-4-4-4-4-4-4-4-4-4-4-4-4-4-4-4-4-4-|
|D|-4-4-4-4-4-4-4-4-4-4-4-4-4-4-4-4-4-4-4-4-4-4-4-4-|

REPEAT SECTION 1

REPEAT SECTION 2 but end with...
e|-3--3--3--3--3--3--3--3-|
B|-x--x--x--x--x--x--x--x-|
G|-1--1--1--1--1--1--1--1-|
D|------------------------|
A|------------------------|
D|------------------------|... instead of just 2 major sevenths

SECTION 8
Both Guitars
e|------------------------------------------3--3-|
B|------------------------------------------x--x-|
G|------------------------------------------1--1-|
D|-6-5-4-2-3--1-1-2-2---6-5-4-2-3--1-1-2-2-------|
A|-6-5-4-2-3--1-1-2-2---6-5-4-2-3--1-1-2-2-------|
D|-6-5-4-2-3--1-1-2-2---6-5-4-2-3--1-1-2-2-------|

SECTION 9
Both Guitars
e|-------8--------8----------8--------8--------------------|
B|-------x--------x----------x--------x--------------------|
G|-------6--------6----------6--------6--------------------|
D|-6-5------0-6------6-5-4------6-5-0----0-6-0-6-5-4-2-3-1-|x4
A|-6-5-0----0-6-0----6-5-4-0----6-5-0----0-6-0-6-5-4-2-3-1-|
D|-6-5-0----0-6-0----6-5-4-0----6-5-0----0-6-0-6-5-4-2-3-1-|
       .        .          .        .

Extra Guitar (On the last two repeats)
e|-8-8-8-8-8-8-8-8-8-8-8-8-8-8-8-8-8-8-8-8-8-8-8-8-8-8-8-8-8-19--|
B|-x-x-x-x-x-x-x-x-x-x-x-x-x-x-x-x-x-x-x-x-x-x-x-x-x-x-x-x-x--x--|
G|-5-5-5-5-5-5-5-5-5-5-5-5-5-5-5-5-5-5-5-5-5-5-5-5-5-5-5-5-5-16--|
D|---------------------------------------------------------------|
A|---------------------------------------------------------------|
D|---------------------------------------------------------------|

Outro
Both Guitars
e|--------------------|
B|--------------------|
G|--------------------|
D|-6-5-4-2-3--1-1-2-2-|
A|-6-5-4-2-3--1-1-2-2-|
D|-6-5-4-2-3--1-1-2-2-|

Fun little tune. There are certain parts that have 3 tracks going, so just take your pick.
Hope you like it.
Please rate & comment.
Thanks,
millarso

| /  slide up
| \  slide down
| h  hammer-on
| p  pull-off
| ~  vibrato
| TP tremolo picking
Tap to rate this tab
# A B C D E F G H I J K L M N O P Q R S T U V W X Y Z