Song name
# A B C D E F G H I J K L M N O P Q R S T U V W X Y Z

Every Time I Die - Champing At The Bit tab

----------------------------------------------------------------------------------------
                    Champing At The Bit - Every Time I Die
----------------------------------------------------------------------------------------
Tabbed by: millarso (Jake Miller)
E-mail: millarso2.0@gmail.com

Tuning: Drop D

INTRO
Guitar 1
e|-------------------------------------------------|
B|-------------------------------------------------|
G|-------------------------------------------------|
D|------3------3------------3------1-2-1-0-1-2-1-0-|
A|----------------111--------------1-2-1-0-1-2-1-0-|
D|-2-1----2-1-----111--2-1----2-1--1-2-1-0-1-2-1-0-|
                  ...

Guitar 2
e|-------------------------------------------------|
B|-------------------------------------------------|
G|-------------------------------------------------|
D|--------------------------3------1-2-1-0-1-2-1-0-|
A|----------------111--------------1-2-1-0-1-2-1-0-|
D|----------------111--2-1----2-1--1-2-1-0-1-2-1-0-|
                  ...

SECTION 1
Both Guitars                                 1st Ending          2nd Ending
e|---------------------------------------|  |---------|----------------------------|
B|---------------------------------------|  |---------|----------------------------|
G|---------------------------------------|  |---------|----------------------------|
D|-2-1-0-1--2-1-0-1--2-1-0-1--2-1-0-2--2-|x2|-1-2-1-0-|-1-2-1-0-1-2-1-0------------|
A|-2-1-0-1--2-1-0-1--2-1-0-1--2-1-0-2--2-|  |-1-2-1-0-|-1-2-1-0-1-2-1-0-(feedback)-|
D|-2-1-0-1--2-1-0-1--2-1-0-1--2-1-0-2--2-|  |-1-2-1-0-|-1-2-1-0-1-2-1-0------------|

SECTION 2
Both Guitars (Guitar 2 joins on repeat)      1st Ending     2nd Ending
e|---------------------------------------|  |---------|-----------------|
B|---------------------------------------|  |---------|-----------------|
G|---------------------------------------|  |---------|-----------------|
D|-2-1-0-1--2-1-0-1--2-1-0-1--2-1-0-2--2-|x2|-1-2-1-0-|-1-2-1-0-1-2-1-0-|
A|-2-1-0-1--2-1-0-1--2-1-0-1--2-1-0-2--2-|  |-1-2-1-0-|-1-2-1-0-1-2-1-0-|
D|-2-1-0-1--2-1-0-1--2-1-0-1--2-1-0-2--2-|  |-1-2-1-0-|-1-2-1-0-1-2-1-0-|

SECTION 3
Both Guitars
e|--------------------------------------------------------|
B|--------------------------------------------------------|
G|--------------------------------------------------------|
D|-8--------8--------8--------8-----------1-2-1-0-1-2-1-0-|
A|-------7--------7--------7--------7--7--1-2-1-0-1-2-1-0-|
D|---7-6------7-6------7-6------7-6-------1-2-1-0-1-2-1-0-|

e|------------------------------------------------|
B|------------------------------------------------|
G|------------------------------------------------|
D|-8--------8--------8--------8-----------1-2-1-0-|
A|-------7--------7--------7--------7--7--1-2-1-0-|
D|---7-6------7-6------7-6------7-6-------1-2-1-0-|

e|--------------------------------------------------------|
B|--------------------------------------------------------|
G|--------------------------------------------------------|
D|-8--------8--------8--------8-----------1-2-1-0-1-2-1-0-|
A|-------7--------7--------7--------7--7--1-2-1-0-1-2-1-0-|
D|---7-6------7-6------7-6------7-6-------1-2-1-0-1-2-1-0-|

SECTION 4
Both Guitars
e|-----------------------------------------------------|
B|-----------------------------------------------------|
G|--------------------------------------------------0--|
D|-2-1-0-1--2-1-0-1--2-1-0-1--2-1-0---------------x-1--|x3
A|-2-1-0-1--2-1-0-1--2-1-0-1--2-1-0---------------x-1--|
D|-2-1-0-1--2-1-0-1--2-1-0-1--2-1-0-1/6--6--6--6--x----|

NOTE: The 0 above is not an accident, it's in that chord somewhere

e|--------------------------------------------------------|
B|--------------------------------------------------------|
G|--------------------------------------------------------|
D|-2-1-0-1--2-1-0-1--2-1-0-1--2-1-0---------------8-------|
A|-2-1-0-1--2-1-0-1--2-1-0-1--2-1-0-----------------------|
D|-2-1-0-1--2-1-0-1--2-1-0-1--2-1-0-1/6--6--6--6----7-6-0-|

SECTION 5
Both Guitars
e|---------------------|  |----------------|
B|---------------------|  |----------------|
G|---------------------|  |----------------|
D|------------/8-------|x3|----------------|
A|---------------------|  |----------------|
D|-2--2--2--2----7-6-0-|  |-2--2--1--1-1-0-|

e|---------------------|  |------------------------|
B|---------------------|  |------------------------|
G|---------------------|  |------------------------|
D|------------/8-------|x3|----------2-1-0-1-2-1-0-|
A|---------------------|  |----------2-1-0-1-2-1-0-|
D|-2--2--2--2----7-6-0-|  |-2--2--1--2-1-0-1-2-1-0-|

SECTION 6
Guitar 1                                     1st Ending     2nd Ending
e|---------------------------------------|  |---------|-----------------|
B|---------------------------------------|  |---------|-----------------|
G|---------------------------------------|  |---------|-----------------|
D|-2-1-0-1--2-1-0-1--2-1-0-1--2-1-0-2--2-|x2|-1-2-1-0-|-1-2-1-0-1-2-1-0-|
A|-2-1-0-1--2-1-0-1--2-1-0-1--2-1-0-2--2-|  |-1-2-1-0-|-1-2-1-0-1-2-1-0-|
D|-2-1-0-1--2-1-0-1--2-1-0-1--2-1-0-2--2-|  |-1-2-1-0-|-1-2-1-0-1-2-1-0-|

Guitar 1                                     1st Ending     2nd Ending
e|---------------------------------------|  |---------|-----------------|
B|---------------------------------------|  |---------|-----------------|
G|---------------------------------------|  |---------|-----------------|
D|----------------------------------2--2-|x2|-1-2-1-0-|-1-2-1-0-1-2-1-0-|
A|----------------------------------2--2-|  |-1-2-1-0-|-1-2-1-0-1-2-1-0-|
D|----------------------------------2--2-|  |-1-2-1-0-|-1-2-1-0-1-2-1-0-|

SECTION 7
Both Guitars
e|---------------------------------------------------|
B|---------------------------------------------------|
G|---------------------------------------------------|
D|---------------------------------------------------|
A|---------------------------------------------------|
D|-2-1-0-1--2-1-0-1--1--2-1-0-1--2-1-0-1--1--1-2-1-0-|

e|---------------------------------------------------|
B|---------------------------------------------------|
G|-------------------------------------------3-3-3-3-|
D|---------------------------------------------------|
A|---------------------------------------------------|
D|-2-1-0-1--2-1-0-1--1--2-1-0-1--2-1-0-1--1----------|

e|---------------------------------------------------|
B|---------------------------------------------------|
G|---------------------------------------------------|
D|---------------------------------------------------|
A|---------------------------------------------------|
D|-2-1-0-1--2-1-0-1--1--2-1-0-1--2-1-0-1--1--1-2-1-0-|

e|-----------------------------------------------------------------------------|
B|-----------------------------------------------------------------------------|
G|-----------------------------------------------------------------------------|
D|-------------------------------------------3-------------------3-------------|
A|-----------------------------------------------------------------------------|
D|-2-1-0-1--2-1-0-1--1--2-1-0-1--2-1-0-2b-1-----2--1-2-1-0-2b-1-----2--1-2-1-0-|

SECTION 8
Both Guitars
e|----------------|  |---------|
B|----------------|  |---------|
G|----------------|  |---------|
D|------8-------8-|x5|-2--1--0-|
A|----------------|  |-2--1--0-|
D|-7-6-----7-6----|  |-2--1--0-|

SECTION 9
Both Guitars
e|-------------------------------------------------|
B|-------------------------------------------------|
G|-------------------------------------------------|
D|------3----------3------------3------------------|
A|-------------------------------------------------|
D|-2-1-----2-1--1----2-1-0-2-1-----2-1--11112b-111-|
                                        ....   ..

e|----------------------------------------------------|
B|----------------------------------------------------|
G|----------------------------------------------------|
D|------3----------3------------3---------------------|
A|----------------------------------------------------|
D|-2-1-----2-1--1----2-1-0-2-1-----2-1--00007----0000-|
                                        ....     ....

e|-------------------------------------------------|
B|-------------------------------------------------|
G|-------------------------------------------------|
D|------8----------8------------8------------------|
A|-------------------------------------------------|
D|-7-6-----7-6--6----7-6-0-7-6-----7-6--00007b-006-|
                                        ....   ..

e|-------------------------------------------------|
B|-------------------------------------------------|
G|-------------------------------------------------|
D|------8----------8------------8------------------|
A|-------------------------------------------------|
D|-7-6-----7-6--6----7-6-0-7-6-----7-6--11112b-111-|
                                        ....   ..

e|-------------------------------------------|
B|-------------------------------------------|
G|-------------------------------------------|
D|------3-------3----------3-----------------|
A|-------------------------------------------|
D|-2-1-----2-1----111-2-1-----2-1-11112b-111-|
                  ...             ....   ..

e|-----------------------------------------------------------------------------------|
B|-----------------------------------------------------------------------------------|
G|-----------------------------------------------------------------------------------|
D|------3-------3----------3-----------------------------------------1-2-1-0-1-2-1-0-|
A|-------------------------------------------------------------------1-2-1-0-1-2-1-0-|
D|-2-1-----2-1----111-2-1-----2-1-11112b-111--11112b-111--11112b-111-1-2-1-0-1-2-1-0-|
                  ...             ....   ..   ....   ..   ....   ..

REPEAT SECTION 4
REPEAT SECTION 5 but replace ending with...
e|---------|
B|---------|
G|---------|
D|-------1-|
A|-------1-|
D|-2--2--1-|

SECTION 10
e|-----------------------------------------------------------------|
B|-----------------------------------------------------------------|
G|-----------------------------------------------------------------|
D|-2--2--2--2--x-1---2--2--2--2--x-1---2--2--2--2--x-1---2--2--1---|
A|-2--2--2--2--x-1---2--2--2--2--x-1---2--2--2--2--x-1---2--2--1---|
D|-2--2--2--2--x-1---2--2--2--2--x-1---2--2--2--2--x-1---2--2--1---|

REPEAT SECTION 5 but replace ending with...
e|---------|
B|---------|
G|---------|
D|-2--2--1-|
A|-2--2--1-|
D|-2--2--1-|

The End. Pretty fun song and relatively as far as ETID goes.
There are similar musical themes throughout the song.
Please rate & comment.
Thanks,
millarso

************************************

| /   slide up
| \   slide down
| h   hammer-on
| p   pull-off
| ~   vibrato
| +   harmonic
| x   Mute note
| b   Bend
| pb  Pre-bend
| br  Bend release
| pbr Pre-bend release
| brb Bend release bend

************************************
Tap to rate this tab
 
# A B C D E F G H I J K L M N O P Q R S T U V W X Y Z