Song name
# A B C D E F G H I J K L M N O P Q R S T U V W X Y Z

Every Time I Die - Buffalo 666 tab

----------------------------------------------------------------------------------------
                         Buffalo 666 - Every Time I Die
----------------------------------------------------------------------------------------
Tabbed by: millarso (Jake Miller)
E-mail: millarso2.0@gmail.com

Tuning: Drop D

Intro
Both Guitars (only one guitar plays tremolo 9's)
e|----------------------------------|
B|----------------------------------|
G|----------------------------------|
D|-9-------9-------9-------9--------|x2
A|-9-------9-------9-------9--------|
D|-9-9999999-9999999-9999999-999999-|
     ......  ......  ......  ......

SECTION 1                              SECTION 2
Both Guitars                           Both Guitars
e|----------------------------------|  |-----------------|
B|----------------------------------|  |-----------------|
G|----------------------------------|  |-----------------|
D|-3--7--6-3--7--6-3--7--6-10--9--8-|x2|-3--7--6---------|x4
A|-3--7--6-3--7--6-3--7--6-10--9--8-|  |-3--7--6--000000-|
D|-3--7--6-3--7--6-3--7--6-10--9--8-|  |-3--7--6--000000-|
                                                  ......
REPEAT SECTION 1

REPEAT SECTION 2

SECTION 3
Both Guitars (1 guitar plays last repeat)
e|------------------------------------|
B|------------------------------------|
G|------------------------------------|
D|-13-11-12-15-13-14-9-10-14-14-13-11-|x4
A|-13-11-12-15-13-14-9-10-14-14-13-11-|
D|-13-11-12-15-13-14-9-10-14-14-13-11-|

SECTION 4
Both Guitars
e|-------------------------------------------------------|
B|-------------------------------------------------------|
G|-------------------------------------------------------|
D|-------------------------------------------------------|x2
A|-------------------------------------------0-0-0-0-0-0-|
D|-6-4-5-8--7-2-3-7-7-6-4-6-4-5-8--7-2-3-6p0-0-0-0-0-0-0-|
                                             . . . . . .

SECTION 5
BOTH GUITARS
e|---------------------------------------------------|
B|---------------------------------------------------|
G|---------------------------------------------------|
D|-6-4-5-8-6-7-2-3-7-7-6-4-6-4-5-8-6-7-2-3-6p0---0-0-|x2
A|-6-4-5-8-6-7-2-3-7-7-6-4-6-4-5-8-6-7-2-3-6p0---0-0-|
D|-6-4-5-8-6-7-2-3-7-7-6-4-6-4-5-8-6-7-2-3-6p0---0-0-|

SECTION 6
Guitar 1
e|-----------------------------------------------------------------|
B|-----------------------------------------------------------------|
G|-----------------------------------------------------------------|
D|-0-0---0-0---3-7-6-3-7-6-3-7-6-3-7-6---------------2-3-7-7-6-4---|
A|-0-0---0-0---3-7-6-3-7-6-3-7-6-3-7-6---------------2-3-7-7-6-4---|
D|-0-0---0-0---3-7-6-3-7-6-3-7-6-3-7-6-3-7--6-3-7--6-2-3-7-7-6-4---|

Guitar 2
e|-----------------------------------------------------------------|
B|-----------------------------------------------------------------|
G|-----------------------------------------------------------------|
D|-0-0---0-0---0-0---0-0---0-0---0-0---0-------------2-3-7-7-6-----|
A|-0-0---0-0---0-0---0-0---0-0---0-0---0-------------2-3-7-7-6-7*b-|
D|-0-0---0-0---0-0---0-0---0-0---0-0---0-------------2-3-7-7-6-----|

REPEAT SECTION 2
REPEAT SECTION 1
REPEAT SECTION 2
REPEAT SECTION 3
REPEAT SECTION 4
REPEAT SECTION 5

SECTION 7 (Shortened Section 6)
Guitar 1
e|-------------------------------------|
B|-------------------------------------|
G|-------------------------------------|
D|-0-0---0-0---3-7-6-3-7-6-3-7-6-3-7-6-|
A|-0-0---0-0---3-7-6-3-7-6-3-7-6-3-7-6-|
D|-0-0---0-0---3-7-6-3-7-6-3-7-6-3-7-6-|

Guitar 2
e|-------------------------------------|
B|-------------------------------------|
G|-------------------------------------|
D|-0-0---0-0---0-0---0-0---0-0---0-0---|
A|-0-0---0-0---0-0---0-0---0-0---0-0---|
D|-0-0---0-0---0-0---0-0---0-0---0-0---|

REPEAT SECTION 1 (slow down the last 3 chords on last repeat)

TRANISTION (only 1 gtr on parentheses)
e|------------------|
B|------------------|
G|------------------|
D|-8-7-6---(6-4-5)--|
A|-8-7-6---(6-4-5)--|
D|-8-7-6---(6-4-5)--|

SECTION 8
Both Guitars
e|-----------------------------------------------------|
B|-----------------------------------------------------|
G|-----------------------------------------------------|
D|-6--4--5-----6--4--5-----6--4--5-----6--4--5-8--6--7-|x4
A|-6--4--5-0-0-6--4--5-0-0-6--4--5-0-0-6--4--5-8--6--7-|
D|-6--4--5-0-0-6--4--5-0-0-6--4--5-0-0-6--4--5-8--6--7-|
           . .         . .         . .

End with...
e|----------|
B|----------|
G|----------|
D|-6--4--5--|
A|-6--4--5--|
D|-6--4--5--|

Pretty simple song actually, although it can be tiring in some points.
Hope you enjoy.
Please rate & comment.
Thanks,
millarso

************************************

| /   slide up
| \   slide down
| h   hammer-on
| p   pull-off
| ~   vibrato
| +   harmonic
| x   Mute note
| b   Bend
| pb  Pre-bend
| br  Bend release
| pbr Pre-bend release
| brb Bend release bend

************************************
Tap to rate this tab
# A B C D E F G H I J K L M N O P Q R S T U V W X Y Z