Guitaretab - guitar tabs
Song name
# A B C D E F G H I J K L M N O P Q R S T U V W X Y Z

Every Time I Die - I Been Gone A Long Time tab

-----------------------------------------------------------------------------
Band: Every Time I Die (www.everytimeidie.com)
Song: I've Been Gone a Long Time
-----------------------------------------------------------------------------

Tabbed by Austin Thuston
atmsk8r@hotmail.com

Dropped D (DADGBe)

I figure if a guy is gonna "combine" tabs and fix em up to a band he refers to as
the "shitty dudes", i'm not gonna trust his tabs. here is the right version.

 
e|------------------------------------------------------------------|
B|------------------------------------------------------------------|
G|--------------------------------------------------3p0-------------|
D|--3(0)--3p0-5p0---3(0)-3p0-5p0---3(0)-3p0-5p0-------5p0-3h5-----| (4x)
A|--3(0)------------3(0)------------3(0)----------------------------|
D|--3(0)----------0-3(0)----------0-3(0)----------0--------------0--|

e|-------------------|
B|-------------------|
G|--5---3-5--3--5-3--|
D|--5---3-5--3--5-3--| (2x)
A|--3---1-3--1--3-1--|
D|-------------------|

e|-----------------------------------------------------------------|
B|-----------------------------------------------------------------|
G|--------------------------------------------------3p0------------|
D|--3(0)--3p0-5p0---3(0)-3p0-5p0---3(0)-3p0-5p0-------5p0-3h5----| (4x)
A|--3(0)------------3(0)------------3(0)---------------------------|
D|--3(0)----------0-3(0)----------0-3(0)----------0-------------0--|

e|-------------------|
B|-------------------|
G|--5---3-5--3--5-3--|
D|--5---3-5--3--5-3--| 
A|--3---1-3--1--3-1--|
D|-------------------|

e|-------------------| 
B|-------------------| 
G|-------------------| 
D|--5---3-5--3--5-3--| (4x)
A|--5---3-5--3--5-3--| 
D|--5---3-5--3--5-3--| 

e|-------------------|
B|-------------------|
G|--5---3-5--3--5-3--|
D|--5---3-5--3--5-3--|
A|--3---1-3--1--3-1--|
D|-------------------|

e|---------------------------------| 
B|---------------------------------| 
G|---------------------------------| 
D|------------------------3h5------| (4x)
A|---------3h5--------3h5-----3h5--| 
D|--0--3h5-----0--3h5--------------| 


e|---------------------------------------------------------------| 
B|---------------------------------------------------------------| 
G|---------------------------------------------------3p0---------| 
D|--0---0-0-0-0-0-0-0-----3p0-5p0-0-0---0-0-0-0-0-0-----5p0-3h5--| (2x)
A|--0---0-0-0-0-0-0-0-------------0-0---0-0-0-0-0-0--------------| 
D|--0---0-0-0-0-0-0-0-3p0---------0-0---0-0-0-0-0-0--------------| 
        * * * * * * *             *     * * * * * * 

e|-----------| 
B|-----------| 
G|-----------| 
D|--5---3-5--|
A|--5---3-5--| 
D|--5---3-5--| 

e|----------------------------------| 
B|----------------------------------| 
G|----------------------------------| 
D|------------------------3h5-------| (4x)
A|---------3h5--------3h5-----3h5---| 
D|--0--3h5-----0--3h5---------------| 

e|-----------------|
B|-----------------|
G|--5---3-5--3--5--|
D|--5---3-5--3--5--|
A|--3---1-3--1--3--|
D|-----------------|

e|------------------------------------------------------------------------| 
B|------------------------------------------------------------------------| 
G|---------------------------------------------------------3p0------------| 
D|--(0)3--0--3p0-5p0--(0)3--0--3p0-5p0--(0)3-0--3p0-5p0-------5p0-3h5----| 
A|--(0)3--0-----------(0)3--0-----------(0)3--0---------------------------| 
D|--(0)3--0-----------(0)3--0-----------(0)3--0----------0-------------0--| 
[ Tab from: http://www.guitaretab.com/e/every-time-i-die/48199.html ]
e|---------------------------------------------------| 
B|---------------------------------------------------| 
G|------------------------------------3p0------------| 
D|--(0)3--0----(0)3--0----(0)3-0---------5p0-3h5----| (2x)
A|--(0)3--0----(0)3--0----(0)3--0--------------------| 
D|--(0)3--0----(0)3--0----(0)3--0--------------------|
 
e|------------------------------------------------------------------|
B|------------------------------------------------------------------|
G|--------------------------------------------------3p0-------------|
D|--3(0)--3p0-5p0---3(0)-3p0-5p0---3(0)-3p0-5p0-------5p0-3h5-----| (2x)
A|--3(0)------------3(0)------------3(0)----------------------------|
D|--3(0)----------0-3(0)----------0-3(0)----------0--------------0--|

e|------------------|
B|------------------|
G|--5---3-5--3--5-3-|
D|--5---3-5--3--5-3-|
A|--3---1-3--1--3-1-|
D|------------------|

e|--------------------------------------------| 
B|--------------------------------------------| 
G|--------------------------------------------| 
D|--5---3-5---3-5-3-5---3-5-3---0-0-0-0-------| (2x)
A|--5---3-5---3-5-3-5---3-5-3---0-0-0-0-------| 
D|--5---3-5---3-5-3-5---3-5-3---0-0-0-0-------| 
                                * * * *
e|-----------------------------------------------------------------| 
B|-----------------------------------------------------------------| 
G|---------------------------------------------------3p0-----------| 
D|--0---0-0-0-0-0-0-0-----3p0-5p0-0-0---0-0-0-0-0-0-----5p0-3h5-0--| (2x)
A|--0---0-0-0-0-0-0-0-------------0-0---0-0-0-0-0-0-------------0--| 
D|--0---0-0-0-0-0-0-0-3p0---------0-0---0-0-0-0-0-0-------------0--| 
        * * * * * * *             *     * * * * * *             *

e|----|-----------------------------------------|
B|----|-----------------------------------------|
G|----|:---------------------------------------:|
D|--0-|:-0-3h5-0---0-3h5-0---0-3h5-0---0-10-12-:| (2x)
A|--0-|--0-3h5-0---0-3h5-0---0-3h5-0---0-10-12--|
D|--0-|--0-3h5-0---0-3h5-0---0-3h5-0---0-10-12--|

e|------------------------------------------------------------------------| 
B|------------------------------------------------------------------------| 
G|------------------------------------------------------------------------| 
D|--0-3h5-0---0-3h5-0---0-3h5-0--0-10-12--0-12-10--0-6-8--0-3-5--0-3h5-0--| 
A|--0-3h5-0---0-3h5-0---0-3h5-0--0-10-12--0-12-10--0-6-8--0-3-5--0-3h5-0--| 
D|--0-3h5-0---0-3h5-0---0-3h5-0--0-10-12--0-12-10--0-6-8--0-3-5--0-3h5-0--| 

e|-----------------------------------------|
B|-----------------------------------------|
G|-----------------------------------------|
D|--0-3h5-0---0-3h5-0---0-3h5-0---0-10-12--| (2x)
A|--0-3h5-0---0-3h5-0---0-3h5-0---0-10-12--|
D|--0-3h5-0---0-3h5-0---0-3h5-0---0-10-12--|

e|------------------------------------------------------------------------| 
B|------------------------------------------------------------------------| 
G|------------------------------------------------------------------------| 
D|--0-3h5-0---0-3h5-0---0-3h5-0--0-10-12--0-12-10--0-6-8--0-3-5--0-3h5-0--| 
A|--0-3h5-0---0-3h5-0---0-3h5-0--0-10-12--0-12-10--0-6-8--0-3-5--0-3h5-0--| 
D|--0-3h5-0---0-3h5-0---0-3h5-0--0-10-12--0-12-10--0-6-8--0-3-5--0-3h5-0--|

e|-----------------------------------------|
B|-----------------------------------------|
G|-----------------------------------------|
D|--0-3h5-0---0-3h5-0---0-3h5-0---0-10-12--| (2x)
A|--0-3h5-0---0-3h5-0---0-3h5-0---0-10-12--|
D|--0-3h5-0---0-3h5-0---0-3h5-0---0-10-12--|

e|------------------------------------------------------------------------| 
B|------------------------------------------------------------------------| 
G|------------------------------------------------------------------------| 
D|--0-3h5-0---0-3h5-0---0-3h5-0--0-10-12--0-12-10--0-6-8--0-3-5--0-3h5-0--| 
A|--0-3h5-0---0-3h5-0---0-3h5-0--0-10-12--0-12-10--0-6-8--0-3-5--0-3h5-0--| 
D|--0-3h5-0---0-3h5-0---0-3h5-0--0-10-12--0-12-10--0-6-8--0-3-5--0-3h5-0--|

e|-----------------------------------------|
B|-----------------------------------------|
G|-----------------------------------------|
D|--0-3h5-0---0-3h5-0---0-3h5-0---0-10-12--| (2x)
A|--0-3h5-0---0-3h5-0---0-3h5-0---0-10-12--|
D|--0-3h5-0---0-3h5-0---0-3h5-0---0-10-12--|

e|------------------------------------------------------------------------| 
B|------------------------------------------------------------------------| 
G|------------------------------------------------------------------------| 
D|--0-3h5-0---0-3h5-0---0-3h5-0--0-10-12--0-12-10--0-6-8--0-3-5--0-3h5-0--| 
A|--0-3h5-0---0-3h5-0---0-3h5-0--0-10-12--0-12-10--0-6-8--0-3-5--0-3h5-0--| 
D|--0-3h5-0---0-3h5-0---0-3h5-0--0-10-12--0-12-10--0-6-8--0-3-5--0-3h5-0--|

If you have questions, go ahead and email me. i corrected the tab that was on this
site (www.ultimate-guitar.com) to how it is actually played, unlike the other tab
which was very wrong; showed notes that weren't even there, wrong frets, etc. Enjoi.
Related for I Been Gone A Long Time tab