Song name
# A B C D E F G H I J K L M N O P Q R S T U V W X Y Z

Every Time I Die - God Speed Us To Sea tab

Help us improve GuitareTab! Take a short survey!
artist:Every Time I Die
song:Godspeed Us To sea
album:Hot Damn!
tabbed by: Hal McMahon
Droped D Tuning  (dadgbe)


INTRO
e---------------------------------|
b---------------------------------|
g---------------------------------|
d----------------------4----------|
a-------3-4-3-----3-4-5-5---------|
d---0-4-------0-4-----------------|


e---------------------------------------------|
b---------------------------------------------|
g---------------------------------------------|
d--------------------------------------4------|              
a---------------------------------3-4-5-5-----|
d----5-5-5555-55-555-44-4444--0-4-------------|


e---------------------------------------------------|------------------|
b---------------------------------------------------|------------------|
g---------------------------------------------------|------------------|
d-------------------------------------------4---(0)-|------------4-----|
a--------3-4-3-----3-4-3-----3-4-3-----3-4-5-5--(0)-|-------3-4-5-5----|
d----0-4-------0-4-------0-4-------0-4----------(0)-|---0-4------------|


e--------------------------------------------------------------|
b----------------------------4444----------4444----------------|
g----------------------------7777----------7777----------------|
d----0-0-000-0-0-000-0-0-000------0--0-0-0----------4----------|
a----0-0-000-0-0-000-0-0-000------0--0-0-0------4-5---5-0------|
d----0-0-000-0-0-000-0-0-000------0--0-0-0----------------4-0--|


e---------------------------------------------------------|
b----------------------------------------4----------------|
g----------------------------------------7----------------|
d-----------------------------0-0-00000-------------4-----|
a-------3-4-3-----3-4-3-----3-0-0-00000--------3-4-5-5----|
d---0-4-------0-4-------0-4---0-0-00000----0-4------------|


e-----------------------------------------------|
b-----------------------------------------------|
g-----------------------------------------------|
d--------------------------------------4---4-0--|                   
a---------------------------------3-4-5-5--4-0--|
d----5-5-5555-55-555-44-4444--0-4----------4-0--|

e---------------------|
b------------44444\---|
g------------77777\---|
d----0-00000----------|
a----0-00000----------|
d----0-00000----------|

e-----------------------------|
b------------4444-----4-------|
g------------7777-----7-------|
d----0-00000------0-0---000-0-|
a----0-00000------0-0---000-0-|
d----0-00000------0-0---000-0-|


......
Related for God Speed Us To Sea tab