Song name
# A B C D E F G H I J K L M N O P Q R S T U V W X Y Z

Every Time I Die - Ebolorama tab

Band: Every time i die
Song name: Ebolorama or ebolarama(not sure)
Album: Hot damn!

  This song is easy once you play it some times

Riff 1
(gtr1)
e|---------------------------------------------------------------|
B|---------------------------------------------------------------|
G|---------------8-8-8-----------------------------8-8-8---------|
D|---xxxx5-xxxx--7-7-7---xxxx5xxxx5xx5--xxxx5-xxxx-7-7-7---xxxx5-|
A|---xxxx5-xxxx--4-4-4---xxxx5xxxx5xx5--xxxx5-xxxx-4-4-4---xxxx5-|
E|---xxxx3-xxxx--4-4-4---xxxx3xxxx3xx3--xxxx3-xxxx-4-4-4---xxxx3-|

E|---1-0-4--1-0-4---|

Riff 2 (x2)
(both gtrs)

e|----------------------------------------------------------------------|
B|----------------------------------------------------------------------|
G|---------------8-8-8-----------------------------8-8-8----------------|
D|---xxxx5-xxxx--7-7-7---xxxx5xxxx5xx5--xxxx5-xxxx-7-7-7---xxxx5--------|
A|---xxxx5-xxxx--4-4-4---xxxx5xxxx5xx5--xxxx5-xxxx-4-4-4---xxxx5--------|
E|---xxxx3-xxxx--4-4-4---xxxx3xxxx3xx3--xxxx3-xxxx-4-4-4---xxxx3-1-0-4--|


e|---------------------------------------------------------------|
B|---------------------------------------------------------------|
G|---------------8-8-8-----------------------------8-8-8---------|
D|---xxxx5-xxxx--7-7-7---xxxx5xxxx5xx5--xxxx5-xxxx-7-7-7---xxxx5-|
A|---xxxx5-xxxx--4-4-4---xxxx5xxxx5xx5--xxxx5-xxxx-4-4-4---xxxx5-|
E|---xxxx3-xxxx--4-4-4---xxxx3xxxx3xx3--xxxx3-xxxx-4-4-4---xxxx3-|

E|---1-0-4--1-0-4---|

Riff 3
(x2)
e|--------------------------------------------|
B|--------------------------------------------|
G|---777777777777-xxxx---777777777777---------|
D|---777777777777-xxxx5--777777777777---------|
A|---555555555555-xxxx4--555555555555---------|
E|----------------xxxx2----------------104-104|

Riff 4
gtr 1
e|--------------------------|
B|--------------------------|
G|---xxxx--8-8-8-xxxx-------|
D|---xxxx5-7-7-7-xxxx-------|
A|---xxxx5-5-5-5-xxxx-------|
E|---xxxx3-4-4-4-xxxx--104--|
gtr 2
e|--------------------------|
B|--------------------------|
G|--------------------------|
D|--------------------------|
A|--------------------------|
E|---------------------104--|

Riff 5
Both gtrs
e|------------------------------|
B|------------------------------|
G|--------11--3-5--3-5-3-2-0----|
D|---4454711--3-3--3-3-3-2-0----|
A|---4454710--1-1--1-1-1-0-0----|
E|---22325-8--1----1---1-2-0----|

Riff 6(x2)
both gtrs
e|--------------------|
B|--------------------|
G|---11---------------|
D|----9-xxx-x-x-x-x-x-|
A|----7-xxx-x-x-x-x-x-|
E|----7-xxx-x-x-x-x-x-|

Riff 5
Both gtrs
e|------------------------------|
B|------------------------------|
G|--------11--3-5--3-5-3-2-0----|
D|---4454711--3-3--3-3-3-2-0----|
A|---4454710--1-1--1-1-1-0-0----|
E|---22325-8--1----1---1-2-0----|
 
Riff 7(x2)
Both gtrs
e|------------------|
B|------------------|
G|---11-x-x-x-x-x-x-|
D|---10-x-x-x-x-x-x-|
A|----8-x-x-x-x-x-x-|
E|----8-x-x-x-x-x-x-|

Riff 4(variacion)(x4)
gtr 1
e|--------------------------|
B|--------------------------|
G|---xxxx--8-8-8-xxxx-------|
D|---xxxx5-7-7-7-xxxx-------|
A|---xxxx5-5-5-5-xxxx-------|
E|---xxxx3-4-4-4-xxxx--104--|
gtr 2
e|--------------------------|
B|--------------------------|
G|---xxxx-------------------|
D|---xxxx5------------------|
A|---xxxx5------------------|
E|---xxxx3------------------|

Riff 8(x4)
both gtrs
e|------------------------|
B|------------------------|
G|---77777777-------------|
D|---77777777-------------|
A|---55555555-------------|
E|------------3--4-34-104-|

Riff 3
(x2)
e|--------------------------------------------|
B|--------------------------------------------|
G|---777777777777-xxxx---777777777777---------|
D|---777777777777-xxxx5--777777777777---------|
A|---555555555555-xxxx4--555555555555---------|
E|----------------xxxx2----------------104-104|


Riff 4(variacion)(x3 i think, not sure)
gtr 1
e|--------------------------|
B|--------------------------|
G|---xxxx--8-8-8-xxxx-------|
D|---xxxx5-7-7-7-xxxx-------|
A|---xxxx5-5-5-5-xxxx-------|
E|---xxxx3-4-4-4-xxxx--104--|
gtr 2
e|--------------------------|
B|--------------------------|
G|---xxxx-------------------|
D|---xxxx5------------------|
A|---xxxx5------------------|
E|---xxxx3------------------|

Riff 9(x3)
both gtrs
e|---------------------------------|
B|---------------------------------|
G|---xxxx--------------------------|
D|---xxxx5-------------------------|
A|---xxxx5-------------------------|
E|---xxxx3-------------104-104-----|

Riff 10(x1)
Both gtrs
e|-------------------------------------|
B|-------------------------------------|
G|---12-x-x-x-x-x-x-x-11-x-x-x-x-x-x-x-|
D|---11-x-x-x-x-x-x-x-10-x-x-x-x-x-x-x-|
A|----9-x-x-x-x-x-x-x--8-x-x-x-x-x-x-x-|
E|----7-x-x-x-x-x-x-x--6-x-x-x-x-x-x-x-|

Riff 9(x1)
both gtrs
e|---------------------------------|
B|---------------------------------|
G|---xxxx--------------------------|
D|---xxxx5-------------------------|
A|---xxxx5-------------------------|
E|---xxxx3-------------104-104-----|

Riff 10(x2)
Both gtrs
e|-------------------------------------|
B|-------------------------------------|
G|---12-x-x-x-x-x-x-x-11-x-x-x-x-x-x-x-|
D|---11-x-x-x-x-x-x-x-10-x-x-x-x-x-x-x-|
A|----9-x-x-x-x-x-x-x--8-x-x-x-x-x-x-x-|
E|----7-x-x-x-x-x-x-x--6-x-x-x-x-x-x-x-|

(1:50 - 2:02 special efects)

Riff 5 (x4)
Both gtrs
e|------------------------------|
B|------------------------------|
G|--------11--3-5--3-5-3-2-0----|
D|---4454711--3-3--3-3-3-2-0----|
A|---4454710--1-1--1-1-1-0-0----|
E|---22325-8--1----1---1-2-0----|

Riff 11
(x2)
Both gtrs
e|--------------------------------------------------|
B|--------------------------------------------------|
G|---7----------------------xxxx---7----------------|
D|---7-(x? listen the song)-xxxx5--7-(x?)-----------|
A|---5----------------------xxxx5--5----------------|
E|--------------------------xxxx3---------104-104---|

Riff 12 (x8)
Both gtrs
e|----------|
B|----------|
G|---66666--|
D|---66666--|
A|---55555--|
E|---44444--|

Riff 13 x2
Both gtrs
e|-------------------------------------------------------------------------|
B|-------------------------------------------------------------------------|
G|---66666----------------66666------------66666-------------66666---------|
D|---66666--5-4--5-4-5----66666------------66666--5-4--5-4-5-66666---------|
A|---55555--5-4--5-4-5----55555------------55555--5-4--5-4-5-55555---------|
E|---44444--3-2--3-2-3----44444------104---44444--3-2--3-2-3-44444--104-104|

Riff 12 (x4)
Both gtrs
e|----------|
B|----------|
G|---66666--|
D|---66666--|
A|---55555--|
E|---44444--|
Tap to rate this tab
# A B C D E F G H I J K L M N O P Q R S T U V W X Y Z