Song name
# A B C D E F G H I J K L M N O P Q R S T U V W X Y Z

Every Time I Die - Romeo-a-go-go tab

Gtrs I, II
|-x--------|-----------------------------|---------------------------------|
|-x--------|-----------------------------|---------------------------------|
|-x--------|-----------------------------|---------------------------------|
|-x--------|---------3-------------3-----|---------3-------------3---------|
|-x--------|-----------4p0-----------4p0-|-----------4p0-----------4p0-4p0-|
|-x--------|-7p0-7p0-------6p0-7p0-------|-7p0-7p0-------6p0-7p0-----------|


 7/8                           8/8
|-----------------------------|-------------------------------|
|-----------------------------|-------------------------------|
|-----------------------------|-------------------------------|
|---------3-------------3-----|---------3-------------3-------|
|-----------4p0-----------4p0-|-----------4p0-----------4p0-4-|
|-6p0-7p0-------6p0-7p0-------|-7p0-7p0-------6p0-7p0---------|


  D5  N.C.
 7/8                           8/8
  Gtr I
|-----------------------------|-------------------------------||
|-----------------------------|-------------------------------||
|-----------------------------|-------------------------------||
|---------3-------------3-----|---------3-------------3-------||
|-----------4p0-----------4p0-|-----------4p0-----------4p0-4-||
|-6p0-7p0-------6p0-7p0-------|-6p0-7p0-------6p0-7p0---------||
|
| Gtr II
|-----------------------------|-------------------------------||
|-----------------------------|-------------------------------||
|-----------------------------|-------------------------------||
|-----------------------------|-----------------------3-------||
|-0---------------------------|-------------------------4p0-4-||
|-0---------------------------|-------------------------------||


 Section B
  N.C.
 4/4
|-x---------------------------|-(x)---------------------------||
|-x---------------------------|-(x)---------------------------||
|-----------------------------|-------------------------------||
|-----------------------------|-------------------------------||
|-----------------------------|-------------------------------||
|-----------------------------|-------------------------------||
|
|-----------------------------|-------------------------------||
|-----------------------------|-------------------------------||
|-----------------------------|-------------------------------||
|-----------------------------|-------------------------------||
|-----------------------------|-------------------------------||
|-4-3-0-3-0-4-3-0-3-0-4-3-0-3-|--4--3-0-3-0-4-3-0-3-0-4-3-0-3-||


 Section C
  N.C.                                                        C#b5
 7/8                                                         3/8
  Gtrs I, II
|-----------------------------|-----------------------------|-----|
|-----------------------------|-----------------------------|-----|
|-----------------------------|-----------------------------|-6---|
|---------3-------------3-----|---------3-------------3-----|-5---|
|-----------4p0-----------4p0-|-----------4p0-----------4p0-|-4---|
|-6p0-7p0-------6p0-7p0-------|-6p0-7p0-------6p0-7p0-------|-----|


  N.C.                          C#b5
 7/8                           3/8
|-----------------------------|-----|
|-----------------------------|-----|
|-----------------------------|-6---|
|---------3-------------3-----|-5---|
|-----------4p0-----------4p0-|-4---|
|-6p0-7p0-------6p0-7p0-------|-----|


  N.C.
 7/8                           8/8
|-----------------------------|---------------------------------|
|-----------------------------|---------------------------------|
|-----------------------------|---------------------------------|
|---------3-------------3-----|---------3-------------3---------|
|-----------4p0-----------4p0-|-----------4p0-----------4p0-4p0-|
|-7p0-7p0-------6p0-7p0-------|-6p0-7p0-------6p0-7p0-----------|


                                                              H.=H
                                                              C#b5
 7/8                                                         4/8
|-----------------------------|-----------------------------|------||
|-----------------------------|-----------------------------|------||
|-----------------------------|-----------------------------|-6----||
|---------3-------------3-----|---------3-------------3-----|-5----||
|-----------4p0-----------4p0-|-----------4p0-----------4p0-|-4----||
|-6p0-7p0-------6p0-7p0-------|-7p0-7p0-------6p0-7p0-------|------||


 Section D
  Q=80
  F#FbD5FbD5        F#FbD5FbD5  F#FbD5FbD5    F#FbD5FbD5FbF#Fb5
 4/4                                         2/4
  Gtr I
|-----------------|-------------------------|-----------------|
|-----------------|-------------------------|-----------------|
|-----------------|-------------------------|-----------------|
|-4-3---3-0-------|-4-3---3-0---4-3---3-0---|-4-3---3---3-4-3-|
|-3-2-0-2-0-------|-3-2-0-2-0---3-2-0-2-0---|-3-2-0-2-0-2-3-2-|
|-4-3-0-3-0-------|-4-3-0-3-0---4-3-0-3-0---|-4-3-0-3-0-3-4-3-|
|
| Gtr II
|                                             PM------------|
|-----------------|-------------------------|-----------------|
|-----------------|-------------------------|-----------------|
|-----------------|-------------------------|-----------------|
|-4-3---3-0-------|-4-3---3-0---4-3---3-0---|-4-3---3---3-4-3-|
|-3-2-0-2-0-------|-3-2-0-2-0---3-2-0-2-0---|-3-2-0-2-0-2-3-2-|
|-4-3-0-3-0-------|-4-3-0-3-0---4-3-0-3-0---|-4-3-0-3-0-3-4-3-|


  F#FbD5FbD5  F#FbD5FbD5    F#FbD5FbF#FbD5Fb5
 4/4                       2/4
|-------------------------|-----------------|
|-------------------------|-----------------|
|-------------------------|-----------------|
|-4-3---3-0---4-3---3-0---|-4-3---3-4-3---3-|
|-3-2-0-2-0---3-2-0-2-0---|-3-2-0-2-3-2-0-2-|
|-4-3-0-3-0---4-3-0-3-0---|-4-3-0-3-4-3-0-3-|
|
|                           PM----|
|-------------------------|-----------------|
|-------------------------|-----------------|
|-------------------------|-----------------|
|-4-3---3-0---4-3---3-0---|-4-3---3---------|
|-3-2-0-2-0---3-2-0-2-0---|-3-2-0-2---------|
|-4-3-0-3-0---4-3-0-3-0---|-4-3-0-3---------|


  F#FbD5FbD5  F#FbD5FbD5    F#FbD5FbD5FbF#Fb5
 4/4                       2/4
                                    PM----|
|-------------------------|-----------------||
|-------------------------|-----------------||
|-------------------------|-----------------||
|-4-3---3-0---4-3---3-0---|-4-3---3---3-4-3-||
|-3-2-0-2-0---3-2-0-2-0---|-3-2-0-2-0-2-3-2-||
|-4-3-0-3-0---4-3-0-3-0---|-4-3-0-3-0-3-4-3-||
|
|                           PM----|
|-------------------------|-----------------||
|-------------------------|-----------------||
|-------------------------|-----------------||
|-4-3---3-0---4-3---3-0---|-4-3---3---------||
|-3-2-0-2-0---3-2-0-2-0---|-3-2-0-2---------||
|-4-3-0-3-0---4-3-0-3-0---|-4-3-0-3---------||


 Section E
  Q=100
  F#FbD5FbD5       F#FbD5FbD5       F#FbD5FbD5
 4/4
|----------------|---------0------|--------------|
|----------------|---------0------|--------------|
|----------------|---------0------|--------------|
|-4-3---3-0------|-4-3---3-0------|-4-3---3-0----|
|-3-2-0-2-0------|-3-2-0-2-0------|-3-2-0-2-0----|
|-4-3-0-3-0------|-4-3-0-3-0------|-4-3-0-3-0----|
|
|----------------|----------------|--------------|
|----------------|----------------|--------------|
|----------------|----------------|--------------|
|-4-3---3-0------|-4-3---3-0------|-4-3---3-0----|
|-3-2-0-2-0------|-3-2-0-2-0------|-3-2-0-2-0----|
|-4-3-0-3-0------|-4-3-0-3-0------|-4-3-0-3-0----|


  F#FbD5FbD5F#FbD5FbD5F#FbD5Fb5 F#FbD5FbD5F#FbN.C.
  Gtrs I, II
                                              TPTPTP
|-----------------------------|--------------------------------|
|-----------------------------|--------------------------------|
|-----------------------------|--------------------------------|
|-4-3---3-0-4-3---3-0-4-3---3-|-4-3---3-0-4-3-3----------------|
|-3-2-0-2-0-3-2-0-2-0-3-2-0-2-|-3-2-0-2-0-3-2---4-0------------|
|-4-3-0-3-0-4-3-0-3-0-4-3-0-3-|-4-3-0-3-0-4-3-------[6]b7r(6)--|


  F#FbD5FbD5F#FbD5FbD5F#FbD5Fb5 F#FbD5FbD5F#FbF5 C#5A5G#5
|-----------------------------|-------------------------||
|-----------------------------|-------------------------||
|-----------------------------|---------------10--------||
|-4-3---3-0-4-3---3-0-4-3---3-|-4-3---3-0-4-3-10-11-7-6-||
|-3-2-0-2-0-3-2-0-2-0-3-2-0-2-|-3-2-0-2-0-3-2--8-11-7-6-||
|-4-3-0-3-0-4-3-0-3-0-4-3-0-3-|-4-3-0-3-0-4-3----11-7-6-||


 Section F
  Q=112
  N.C.
 7/8                           8/8
|-----------------------------|---------------------------------|
|-----------------------------|---------------------------------|
|-----------------------------|---------------------------------|
|---------3-------------3-----|---------3-------------3---------|
|-----------4p0-----------4p0-|-----------4p0-----------4p0-4p0-|
|-6p0-7p0-------6p0-7p0-------|-7p0-7p0-------6p0-7p0-----------|


 7/8                           8/8
|-----------------------------|-------------------------------||
|-----------------------------|-------------------------------||
|-----------------------------|-------------------------------||
|---------3-------------3-----|---------3-------------3-------||
|-----------4p0-----------4p0-|-----------4p0-----------4p0-4-||
|-6p0-7p0-------6p0-7p0-------|-6p0-7p0-------6p0-7p0---------||


 Section G
  Q=102
  Dsus4             N.C.D5        Dsus4      N.C.
 7/8       8/8         7/8       8/8
  Gtr I
|-0-------|-0---------|-0-------|-0------(0)---|
|-0-------|-0---------|-0-------|-0------(0)---|
|-0-------|-0---------|-0-------|-0------(0)---|
|-0-------|-0---------|-0-------|-0------(0)---|
|-0-------|-0-------4-|-0-------|-0------(0)-4-|
|-0-------|-0---------|-0-------|-0------(0)---|
|
| Gtr II
|---------|-----------|---------|--------------|
|---------|-----------|---------|--------------|
|-0-------|-0---------|---------|-0------(0)---|
|-0-------|-0---------|-0-------|-0------(0)---|
|-0-------|-0-------4-|-0-------|-0------(0)-4-|
|-0-------|-0---------|-0-------|-0------(0)---|


  F#D5  FbD5        F#D5  FbD5        F#D5  FbD5    D5        Dsus4      N.C.
 4/4                                               7/8       8/8
|-------------------------------------------------|-0-------|-0------(0)--||
|-------------------------------------------------|-0-------|-0------(0)--||
|-------------------------------------------------|-0-------|-0------(0)--||
|-4-----3-----0-----4-----3-----0-----4-----3-----|-0-------|-0------(0)--||
|-3-0-0-2-0-0-0-0-0-3-0-0-2-0-0-0-0-0-3-0-0-2-0-0-|-0-------|-0------(0)-4||
|-4-0-0-3-0-0-0-0-0-4-0-0-3-0-0-0-0-0-4-0-0-3-0-0-|-0-------|-0------(0)--||
|
|-------------------------------------------------|---------|-------------||
|-------------------------------------------------|---------|-------------||
|-------------------------------------------------|---------|-0------(0)--||
|-4-----3-----0-----4-----3-----0-----4-----3-----|-0-------|-0------(0)--||
|-3-0-0-2-0-0-0-0-0-3-0-0-2-0-0-0-0-0-3-0-0-2-0-0-|-0-------|-0------(0)-4||
|-4-0-0-3-0-0-0-0-0-4-0-0-3-0-0-0-0-0-4-0-0-3-0-0-|-0-------|-0------(0)--||


 Section H
  Q=95
  F#D5  FbD5        F#D5  FbD5        F#D5  FbD5
 4/4
  Gtrs I, II
|-------------------------------------------------|
|-------------------------------------------------|
|-------------------------------------------------|
|-4-----3-----0-----4-----3-----0-----4-----3-----|
|-3-0-0-2-0-0-0-0-0-3-0-0-2-0-0-0-0-0-3-0-0-2-0-0-|
|-4-0-0-3-0-0-0-0-0-4-0-0-3-0-0-0-0-0-4-0-0-3-0-0-|


  F#D5  FbD5        F#D5  FbD5        F#D5  FbD5
|-------------------------------------------------|
|-------------------------------------------------|
|-------------------------------------------------|
|-4-----3-----0-----4-----3-----0-----4-----3-----|
|-3-0-0-2-0-0-0-0-0-3-0-0-2-0-0-0-0-0-3-0-0-2-0-0-|
|-4-0-0-3-0-0-0-0-0-4-0-0-3-0-0-0-0-0-4-0-0-3-0-0-|


  F#D5  FbD5        F#D5  FbD5        F#D5  FbD5
  Gtr I
|-------------------------------------------------||
|-------------------------------------------------||
|-------------------------------------------------||
|-4-----3-----0-----4-----3-----0-----4-----3-----||
|-3-0-0-2-0-0-0-0-0-3-0-0-2-0-0-0-0-0-3-0-0-2-0-0-||
|-4-0-0-3-0-0-0-0-0-4-0-0-3-0-0-0-0-0-4-0-0-3-0-0-||


   Section I
    N.C.      D5
    Gtr I
              PM------------------|
||----------------------------------|
||o---------------------------------|
||----------------------------------|
||----------------------------------|
||o--4--------0-0-0-0--0-0-0-0--0-0-|
||------------0-0-0-0--0-0-0-0--0-0-|
|
|   Gtr II
|             PM------------------|
||----------------------------------|
||o---------------------------------|
||----------------------------------|
||----------------------------------|
||o-[4]b5r(4)-0-0-0-0--0-0-0-0--0-0-|
||------------0-0-0-0--0-0-0-0--0-0-|


  F#D5  FbD5        F#D5  FbD5        F#D5  FbD5
|--------------------------------------------------|
|--------------------------------------------------|
|--------------------------------------------------|
|-4-----3-----0-----4-----3-----0-----4-----3------|
|-3-0-0-2-0-0-0-0-0-3-0-0-2-0-0-0-0-0-3-0-0-2-0-0--|
|-4-0-0-3-0-0-0-0-0-4-0-0-3-0-0-0-0-0-4-0-0-3-0-0--|
|
|--------------------------------------------------|
|--------------------------------------------------|
|--------------------------------------------------|
|-4-----3-----0-----4-----3-----0-----4-----3------|
|-3-0-0-2-0-0-0-0-0-3-0-0-2-0-0-0-0-0-3-0-0-2-0-0--|
|-4-0-0-3-0-0-0-0-0-4-0-0-3-0-0-0-0-0-4-0-0-3-0-0--|


  N.D5                      F#D5  FbD5        F#D5  FbD5        F#D5  FbD5
    PM------------------|
|-------------------------|-----------------------------------------------||
|-------------------------|----------------------------------------------o||
|-------------------------|-----------------------------------------------||
|-------------------------|-4-----3-----0-----4-----3-----0-----4-----3---||
|-4-0-0-0-0--0-0-0-0--0-0-|-3-0-0-2-0-0-0-0-0-3-0-0-2-0-0-0-0-0-3-0-0-200o||
|---0-0-0-0--0-0-0-0--0-0-|-4-0-0-3-0-0-0-0-0-4-0-0-3-0-0-0-0-0-4-0-0-300-||
|
|   PM------------------|
|-------------------------|-----------------------------------------------||
|-------------------------|----------------------------------------------o||
|-------------------------|-----------------------------------------------||
|-------------------------|-4-----3-----0-----4-----3-----0-----4-----3---||
|-4-0-0-0-0--0-0-0-0--0-0-|-3-0-0-2-0-0-0-0-0-3-0-0-2-0-0-0-0-0-3-0-0-200o||
|---0-0-0-0--0-0-0-0--0-0-|-4-0-0-3-0-0-0-0-0-4-0-0-3-0-0-0-0-0-4-0-0-300-||


 Section J
  F#FbD5FbD5  F#FbD5FbD5  F#FbD5FbD5    F#FbD5FbD5F#FbD5FbD5F#FbD5Fb5
 9/8                                   4/4
  Gtrs I, II
  PM--------------------------------|
|-------------------------------------|-----------------------------|
|-------------------------------------|-----------------------------|
|-------------------------------------|-----------------------------|
|-4-3---3-----4-3---3-----4-3---3-----|-4-3---3-0-4-3---3-0-4-3---3-|
|-3-2-0-2-0-0-3-2-0-2-0-0-3-2-0-2-0-0-|-3-2-0-2-0-3-2-0-2-0-3-2-0-2-|
|-4-3-0-3-0-0-4-3-0-3-0-0-4-3-0-3-0-0-|-4-3-0-3-0-4-3-0-3-0-4-3-0-3-|


  F#FbD5FbD5F#Fb5 F#FbD5FbD5  F#FbD5FbD5
 2/4             6/8
                  PM--------------------|
|---------------|-------------------------|
|---------------|-------------------------|
|---------------|-------------------------|
|-4-3---3-0-4-3-|-4-3---3-----4-3---3-----|
|-3-2-0-2-0-3-2-|-3-2-0-2-0-0-3-2-0-2-0-0-|
|-4-3-0-3-0-4-3-|-4-3-0-3-0-0-4-3-0-3-0-0-|


  F#FbD5FbD5F#FbD5FbD5F#FbD5Fb5 F#FbD5FbD5F#FbN.C.
 4/4
                                              TPTPTP
|-----------------------------|-------------------------------|
|-----------------------------|-------------------------------|
|-----------------------------|-------------------------------|
|-4-3---3-0-4-3---3-0-4-3---3-|-4-3---3-0-4-3-3---------------|
|-3-2-0-2-0-3-2-0-2-0-3-2-0-2-|-3-2-0-2-0-3-2---4-0-----------|
|-4-3-0-3-0-4-3-0-3-0-4-3-0-3-|-4-3-0-3-0-4-3-------[6]b7r(6)-|


  F#FbD5FbD5F#FbD5FbD5F#FbD5Fb5 F#FbD5FbD5F#Fb5
                               2/4
|-----------------------------|---------------|
|-----------------------------|---------------|
|-----------------------------|---------------|
|-4-3---3---4-3---3---4-3---3-|-4-3---3---4-3-|
|-3-2-0-2-0-3-2-0-2-0-3-2-0-2-|-3-2-0-2-0-3-2-|
|-4-3-0-3-0-4-3-0-3-0-4-3-0-3-|-4-3-0-3-0-4-3-|


  F#FbD5FbD5  F#FbD5FbD5    F#FbD5FbD5  F#FbD5FbD5
 6/8
  PM----------------------------------------------|
|-------------------------|-------------------------||
|-------------------------|-------------------------||
|-------------------------|-------------------------||
|-4-3---3-----4-3---3-----|-4-3---3-----4-3---3-----||
|-3-2-0-2-0-0-3-2-0-2-0-0-|-3-2-0-2-0-0-3-2-0-2-0-0-||
|-4-3-0-3-0-0-4-3-0-3-0-0-|-4-3-0-3-0-0-4-3-0-3-0-0-||


 Section K                      Section L
  Q=70                           Q=120
  N.C.  D5                       N.C.
 4/4                            7/8
  Gtr I                          Gtrs I, II
        PM----|  PM----|  PM|
|-----------------------------||-----------------------------|
|-----------------------------||-----------------------------|
|-----------------------------||-----------------------------|
|-----------------------------||---------3-------------3-----|
|-4b4.5-0-0-0-0--0-0-0-0--0-0-||-----------4p0-----------4p0-|
|-------0-0-0-0--0-0-0-0--0-0-||-6p0-7p0-------6p0-7p0-------|


 8/8
|---------------------------------|
|---------------------------------|
|---------------------------------|
|---------3-------------3---------|
|-----------4p0-----------4p0-4---|
|-7p0-7p0-------6p0-7p0-----------|


 7/8                           8/8
|-----------------------------|-------------------------------||
|-----------------------------|-------------------------------||
|-----------------------------|-------------------------------||
|---------3-------------3-----|---------3-------------3-------||
|-----------4p0-----------4p0-|-----------4p0-----------4p0-4-||
|-6p0-7p0-------6p0-7p0-------|-7p0-7p0-------6p0-7p0---------||


 Section M
  Q.=50
  D5             N.C.        D5
 6/8
  Gtr I
  PM----|  PM--|             PM----|  PM----|
|--------------------------|-------------------|
|--------------------------|-------------------|
|--------------------------|-------------------|
|--------------------------|-------------------|
|-0-0-0-0--0-0-0-----------|-0-0-0-0--0-0-0-0--|
|-0-0-0-0--0-0-0-[6]b7r(6)-|-0-0-0-0--0-0-0-0--|
|
| Gtr II
| PM----|  PM--|             PM----|  PM----|
|--------------------------|-------------------|
|--------------------------|-------------------|
|--------------------------|-------------------|
|----------------[6]b7r(6)-|-------------------|
|-0-0-0-0--0-0-0-----------|-0-0-0-0--0-0-0-0--|
|-0-0-0-0--0-0-0-----------|-0-0-0-0--0-0-0-0--|


  PM----|  PM----|    PM----|
|-------------------|-------------*|
|-------------------|-------------*|
|-------------------|-------------*|
|-------------------|-------------*|
|-0-0-0-0--0-0-0-0--|-0-0-0-0-----*|
|-0-0-0-0--0-0-0-0--|-0-0-0-0-----*|
|
| PM----|  PM----|    PM----|
|-------------------|-------------*|
|-------------------|-------------*|
|-------------------|-------------*|
|-------------------|-------------*|
|-0-0-0-0--0-0-0-0--|-0-0-0-0-----*|
|-0-0-0-0--0-0-0-0--|-0-0-0-0-----*|




--------------------------------------------------------------------------------


Tablature Legend
----------------
 h   - hammer-on
 p   - pull-off
 b   - bend
 pb  - pre-bend
 r   - bend release (if no number after the r, then release immediately)
 /\  - slide into or out of (from/to "nowhere")
 s   - legato slide
 S   - shift slide
 - natural harmonic
[n]  - artificial harmonic
n(n) - tapped harmonic
 ~   - vibrato
 tr  - trill
 T   - tap
 TP  - trem. picking
 PM  - palm muting
\n/  - tremolo bar dip; n = amount to dip
 \n  - tremolo bar down
 n/  - tremolo bar up
/n\  - tremolo bar inverted dip
 =   - hold bend; also acts as connecting device for hammers/pulls
 <> - volume swell (louder/softer)
 x   - on rhythm slash represents muted slash
 o   - on rhythm slash represents single note slash

Misc Legend
-----------
 |  - bar
||  - double bar
||o - repeat start
o|| - repeat end
*|  - double bar (ending)
 :  - bar (freetime)
 $  - Segno
 &  - Coda
Tempo markers -  = BPM(8/16=s8/s16), where s8 = swing 8ths, s16 = swing 16ths

Tap to rate this tab
 
# A B C D E F G H I J K L M N O P Q R S T U V W X Y Z