Song name
# A B C D E F G H I J K L M N O P Q R S T U V W X Y Z

Every Time I Die - Emergency Broadcast Syndrome tab

#----------------------------------PLEASE NOTE---------------------------------#
#This file is the author's own work and represents their interpretation of the #
#song. You may only use this file for private study, scholarship, or research. #
#------------------------------------------------------------------------------##

                          EMERGENCY BROADCAST SYNDROME
                         As recorded by Every Time I Die
                    (From the 2001 Album LAST NIGHT IN TOWN)

Words and Music by Every Time I Die
Arranged by Every Time I Die
Transcribed by Jonathan Rose

Gtr I (D A D G B E) - 'Untitled'
Gtr II (D A D G B E) - 'Untitled'

 "I hate the scene."
  Dancefight Q=168
  N.C.
 4/4
  Wx2
|--------||
|--------||
|--------||
|--------||
|--------||
|--------||


 "Position the phantom.."
  Ab5
  Gtr I
   E  E E   E  E E E   E      E  E E E E E E E
|-------------------------|--------------------|
|--4--4-4---4--4-4-4---4--|---4--4-4-4-4-4-4-4-|
|--2--2-2---2--2-2-2---2--|---2--2-2-2-2-2-2-2-|
|-------------------------|--------------------|
|-------------------------|--------------------|
|-------------------------|--------------------|
|
| Gtr II
|  <
|  Q.      +H         +E     +W
|-------------------------|--------------------|
|-19------(19)-------(19)-|-(19)---------------|
|-------------------------|--------------------|
|-------------------------|--------------------|
|-------------------------|--------------------|
|-------------------------|--------------------|


    E  E E E E E E E     E  E E E   E  E E E
|--------------------|------------------------|
|---4--4-4-4-4-4-4-4-|---4--4-4-4---4--4-4-4--|
|---2--2-2-2-2-2-2-2-|---2--2-2-2---2--2-2-2--|
|--------------------|------------------------|
|--------------------|------------------------|
|--------------------|------------------------|
|
|  +W                   +H         +H
|--------------------|------------------------|
|-(19)---------------|-(19)-------(19)--------|
|--------------------|------------------------|
|--------------------|------------------------|
|--------------------|------------------------|
|--------------------|------------------------|


  Ab5
    E  E E E E E E E     E  E E E E E E E
|--------------------|--------------------|
|---4--4-4-4-4-4-4-4-|---4--4-4-4-4-4-4-4-|
|---2--2-2-2-2-2-2-2-|---2--2-2-2-2-2-2-2-|
|--------------------|--------------------|
|--------------------|--------------------|
|--------------------|--------------------|
|
|   W                   +W
|-(16)---------------|-(16)---------------|
|-(19)---------------|-(19)---------------|
|--------------------|--------------------|
|--------------------|--------------------|
|--------------------|--------------------|
|--------------------|--------------------|


    E  E E E E E E E     E  E E E E E E E
|--------------------|---------------------||
|---4--4-4-4-4-4-4-4-|---4--4-4-4-4-4-4-4--||
|---2--2-2-2-2-2-2-2-|---2--2-2-2-2-2-2-2--||
|--------------------|---------------------||
|--------------------|---------------------||
|--------------------|---------------------||
|
|  +W                   +W
|-(16)---------------|-(16)----------------||
|-(19)---------------|-(19)----------------||
|--------------------|---------------------||
|--------------------|---------------------||
|--------------------|---------------------||
|--------------------|---------------------||


   "We're losing reception.."
    F5E5D5Ab5   D5          Ab5   F5E5D5F5E5D5
   8/8                 9/8
    Gtrs I, II
                PM--------|       PM--------|
    E E E E E E S S E   E E E E E S S E S S E
||--------------------|-----------------------|
||o-------4-4-4-------|-----4-4-4-------------|
||--------2-2-2-------|-----2-2-2-------------|
||--3-2-0-------------|-----------------------|
||o-3-2-0-------0-0-0-|-0-0-------3-2-0-3-2-0-|
||--3-2-0-------0-0-0-|-0-0-------3-2-0-3-2-0-|


  F5E5D5Ab5   D5          Ab5   F5E5D5F5E5D5
 8/8                 9/8
              PM--------|       PM--------|
  E E E E E E S S E   E E E E E S S E S S E
|-------------------|--------------------------||
|-------4-4-4-------|-----4-4-4---------------o||
|-------2-2-2-------|-----2-2-2----------------||
|-3-2-0-------------|--------------------------||
|-3-2-0-------0-0-0-|-0-0-------3-2-0-3-2-0---o||
|-3-2-0-------0-0-0-|-0-0-------3-2-0-3-2-0----||


 "Hiss like the damned.."
  D5      Ab5                           D5      Ab5
 4/4
  Gtr I
  PM----|                               PM----|
  S E S E E E E E E   E E E E E E E E   S E S E E E E E E   E E E E E E E E
|-------------------|-----------------|-------------------|-------------------|
|---------4-4-4-4-4-|-4-4-4-4-4-4-4-4-|---------4-4-4-4-4-|-4-4-4-4-4-4-4-4---|
|---------2-2-2-2-2-|-2-2-2-2-2-2-2-2-|---------2-2-2-2-2-|-2-2-2-2-2-2-2-2---|
|-------------------|-----------------|-------------------|-------------------|
|-0-0-0-0-----------|-----------------|-0-0-0-0-----------|-------------------|
|-0-0-0-0-----------|-----------------|-0-0-0-0-----------|-------------------|
|
| Gtr II
| PM----|                               PM----|
| S E S E E E E E E   E E E E E E E E   S E S E E E E E E   E E E E E E E E
|-------------------|-----------------|-------------------|-------------------|
|---------4-4-4-4-4-|-4-4-4-4-4-4-4-4-|---------4-4-4-4-4-|-4-4-4-4-4-4-4-4---|
|---------2-2-2-2-2-|-2-2-2-2-2-2-2-2-|---------2-2-2-2-2-|-2-2-2-2-2-2-2-2---|
|-------------------|-----------------|-------------------|-------------------|
|-0-0-0-0-----------|-----------------|-0-0-0-0-----------|-------------------|
|-0-0-0-0-----------|-----------------|-0-0-0-0-----------|-------------------|


  D5      Ab5                           D5      Ab5
  PM----|                               PM----|
  S E S E E E E E E   E E E E E E E E   S E S E E E E E E   E E E E E E E E
|-------------------|-----------------|-------------------|------------------||
|---------4-4-4-4-4-|-4-4-4-4-4-4-4-4-|---------4-4-4-4-4-|-4-4-4-4-4-4-4-4--||
|---------2-2-2-2-2-|-2-2-2-2-2-2-2-2-|---------2-2-2-2-2-|-2-2-2-2-2-2-2-2--||
|-------------------|-----------------|-------------------|------------------||
|-0-0-0-0-----------|-----------------|-0-0-0-0-----------|------------------||
|-0-0-0-0-----------|-----------------|-0-0-0-0-----------|------------------||
|
|               <
| PM----|                               PM----|
| S E S E E E E E E   E E E E E E E E   S E S E E E E E E   E E E E E E E E
|-------------------|-----------------|-------------------|------------------||
|---------4-4-4-4-4-|-4-4-4-4-4-4-4-4-|---------4-4-4-4-4-|-4-4-4-4-4-4-4-4--||
|---------2-2-2-2-2-|-2-2-2-2-2-2-2-2-|---------2-2-2-2-2-|-2-2-2-2-2-2-2-2--||
|-------------------|-----------------|-------------------|------------------||
|-0-0-0-0-----------|-----------------|-0-0-0-0-----------|------------------||
|-0-0-0-0-----------|-----------------|-0-0-0-0-----------|------------------||


   *Breakdown*
    F5E5D5Ab5   D5          Ab5
   13/8
    Gtrs I, II
                PM--------|
    E E E E E E S S E S S E E E E
||--------------------------------|
||o-------4-4-4-------------4-4-4-|
||--------2-2-2-------------2-2-2-|
||--3-2-0-------------------------|
||o-3-2-0-------0-0-0-0-0-0-------|
||--3-2-0-------0-0-0-0-0-0-------|


  F5E5D5Ab5   D5          Ab5   F5E5D5F5E5D5
 17/8
              PM--------|       PM--------|
  E E E E E E S S E S S E E E E S S E S S E
|----------------------------------------------||
|-------4-4-4-------------4-4-4---------------o||
|-------2-2-2-------------2-2-2----------------||
|-3-2-0----------------------------------------||
|-3-2-0-------0-0-0-0-0-0-------3-2-0-3-2-0---o||
|-3-2-0-------0-0-0-0-0-0-------3-2-0-3-2-0----||


 "Do you hear me?"
  N.C.
 4/4
  Gtr I
   H    +E      +E  +E      +E    +W            E  H    E  Q     W
|-------------------------------|------------|----------------|--------|
|-------------------------------|------------|----------------|--------|
|-/8----(8)b8.5r(8)-(8)b8.5r(8)-|-(8)--------|--8--9----9-11--|--9-----|
|-------------------------------|------------|----------------|--------|
|-------------------------------|------------|----------------|--------|
|-------------------------------|------------|----------------|--------|
|
| Gtr II
|                                                                >
|  W                              +W           +W               +W
|-------------------------------|------------|----------------|--------|
|-------------------------------|------------|----------------|--------|
|--8----------------------------|-(8)--------|-(8)------------|-(8)----|
|-------------------------------|------------|----------------|--------|
|-------------------------------|------------|----------------|--------|
|-------------------------------|------------|----------------|--------|


  N.C.
 4/4
   E     +E  +E      +E  +E      +E  +E      +E
|------------------------------------------------|
|------------------------------------------------|
|--8b8.5r(8)-(8)b8.5r(8)-(8)b8.5r(8)-(8)b8.5r(8)-|
|------------------------------------------------|
|------------------------------------------------|
|------------------------------------------------|
|
|  W
|------------------------------------------------|
|-(7)--------------------------------------------|
|-(8)--------------------------------------------|
|------------------------------------------------|
|------------------------------------------------|
|------------------------------------------------|


  +E      +E  +E      +E  +E      +E  +E      +E     a  W            +W
|-------------------------------------------------|---------------|---------||
|-------------------------------------------------|---------------|---------||
|-(8)b8.5r(8)-(8)b8.5r(8)-(8)b8.5r(8)-(8)b8.5r(8)-|-10h11---------|-(11)----||
|-------------------------------------------------|---------------|---------||
|-------------------------------------------------|---------------|---------||
|-------------------------------------------------|---------------|---------||
|
| +W                                                   +W            +W
|-------------------------------------------------|---------------|---------||
|-(7)---------------------------------------------|----(7)--------|--(7)----||
|-(8)---------------------------------------------|----(8)--------|--(8)----||
|-------------------------------------------------|---------------|---------||
|-------------------------------------------------|---------------|---------||
|-------------------------------------------------|---------------|---------||


 "Is any of this making.."
  Ab5
                            TP
  E E E E E E E E   E E E E Q..        S
|-----------------|----------------------|
|-4-4-4-4-4-4-4-4-|-4-4-4-4-4s========14-|
|-2-2-2-2-2-2-2-2-|-2-2-2-2--------------|
|-----------------|----------------------|
|-----------------|----------------------|
|-----------------|----------------------|
|
| E E E E E E E E   E E E E E   E E E
|-----------------|----------------------|
|-4-4-4-4-4-4-4-4-|-4-4-4-4-4---4-4-4----|
|-2-2-2-2-2-2-2-2-|-2-2-2-2-2---2-2-2----|
|-----------------|----------------------|
|-----------------|----------------------|
|-----------------|----------------------|


                            TP
  E E E E E E E E   E E E E Q..        S
|-----------------|-----------------------|
|-4-4-4-4-4-4-4-4-|-4-4-4-4-4s========14--|
|-2-2-2-2-2-2-2-2-|-2-2-2-2---------------|
|-----------------|-----------------------|
|-----------------|-----------------------|
|-----------------|-----------------------|
|
| E E E E E E E E   E E E E E   E E E
|-----------------|-----------------------|
|-4-4-4-4-4-4-4-4-|-4-4-4-4-4---4-4-4-----|
|-2-2-2-2-2-2-2-2-|-2-2-2-2-2---2-2-2-----|
|-----------------|-----------------------|
|-----------------|-----------------------|
|-----------------|-----------------------|


  Ab5
                            TP
  E E E E E E E E   E E E E Q..        S
|-----------------|----------------------|
|-4-4-4-4-4-4-4-4-|-4-4-4-4-4s========14-|
|-2-2-2-2-2-2-2-2-|-2-2-2-2--------------|
|-----------------|----------------------|
|-----------------|----------------------|
|-----------------|----------------------|
|
| E E E E E E E E   E E E E E   E E E
|-----------------|----------------------|
|-4-4-4-4-4-4-4-4-|-4-4-4-4-4---4-4-4----|
|-2-2-2-2-2-2-2-2-|-2-2-2-2-2---2-2-2----|
|-----------------|----------------------|
|-----------------|----------------------|
|-----------------|----------------------|


                    H.=H
                            TP
  E E E E E E E E   E E E E Q.     E
|-----------------|-------------------||
|-4-4-4-4-4-4-4-4-|-4-4-4-4-4s====16\-||
|-2-2-2-2-2-2-2-2-|-2-2-2-2-----------||
|-----------------|-------------------||
|-----------------|-------------------||
|-----------------|-------------------||
|
| E E E E E E E E   E E E E E E E  E
|-----------------|-------------------||
|-4-4-4-4-4-4-4-4-|-4-4-4-4-4-4-4--4--||
|-2-2-2-2-2-2-2-2-|-2-2-2-2-2-2-2--2--||
|-----------------|-------------------||
|-----------------|-------------------||
|-----------------|-------------------||


 *Breakdown Outro*
  Beatdown Q=160
  D5        Ab5D5Ab5     D5                       Ab5D5Ab5     D5     D5
  Gtrs I, II
  PM----|      PM        PM-------|     PM----|      PM        PM---------|
  S E S E E Q  E E   +E  E E Q  E E E   S E S E E Q  E E   +E  E E Q  E E E
|------------------|------------------|------------------|-------------------|
|-----------4----4-|-(4)--------------|-----------4----4-|-(4)---------------|
|-----------2----2-|-(2)--------------|-----------2----2-|-(2)---------------|
|------------------|------------------|------------------|-------------------|
|-0-0-0-0------0---|-----0-0----0-0---|-0-0-0-0------0---|-----0-0----0-0----|
|-0-0-0-0------0---|-----0-0----0-0---|-0-0-0-0------0---|-----0-0----0-0----|


  D5        Ab5D5Ab5     D5     D5                Ab5D5Ab5
  PM----|      PM        PM-------|     PM----|      PM
  S E S E E Q  E E   +E  E E Q  E E E   S E S E E Q  E E   +E  E E E E E E E
|------------------|------------------|------------------|--------------------|
|-----------4----4-|-(4)--------------|-----------4----4-|-(4)-4-4-4-4-4-4-4--|
|-----------2----2-|-(2)--------------|-----------2----2-|-(2)-2-2-2-2-2-2-2--|
|------------------|------------------|------------------|--------------------|
|-0-0-0-0------0---|-----0-0----0-0---|-0-0-0-0------0---|--------------------|
|-0-0-0-0------0---|-----0-0----0-0---|-0-0-0-0------0---|--------------------|


  Ab5                   D5        Ab5D5Ab5     D5
 5/4                   4/4
                        PM----|      PM        PM-------|
  E E E E E E E E E E   S E S E E Q  E E   +E  E E Q  E E E
|---------------------|------------------|------------------|
|-4-4-4-4-4-4-4-4-4-4-|-----------4----4-|-(4)--------------|
|-2-2-2-2-2-2-2-2-2-2-|-----------2----2-|-(2)--------------|
|---------------------|------------------|------------------|
|---------------------|-0-0-0-0------0---|-----0-0----0-0---|
|---------------------|-0-0-0-0------0---|-----0-0----0-0---|


  D5        Ab5D5Ab5     D5                       Ab5D5Ab5     D5
  PM----|      PM        PM-------|     PM----|      PM        PM---------|
  S E S E E Q  E E   +E  E E Q  E E E   S E S E E Q  E E   +E  E E Q  E E E
|------------------|------------------|------------------|-------------------|
|-----------4----4-|-(4)--------------|-----------4----4-|-(4)---------------|
|-----------2----2-|-(2)--------------|-----------2----2-|-(2)---------------|
|------------------|------------------|------------------|-------------------|
|-0-0-0-0------0---|-----0-0----0-0---|-0-0-0-0------0---|-----0-0----0-0----|
|-0-0-0-0------0---|-----0-0----0-0---|-0-0-0-0------0---|-----0-0----0-0----|


  D5        Ab5D5Ab5     D5                                      N.C.
                                                     >
  PM----|      PM        PM-------------------------|
  S E S E E Q  E E   +E  E E Q  E Q    +W           +W           Wx12
|------------------|-----------------|------------|------------|---------*|
|-----------4----4-|-(4)-------------|------------|------------|---------*|
|-----------2----2-|-(2)-------------|------------|------------|---------*|
|------------------|-----------------|------------|------------|---------*|
|-0-0-0-0------0---|-----0-0----0-0--|-(0)--------|-(0)--------|---------*|
|-0-0-0-0------0---|-----0-0----0-0--|-(0)--------|-(0)--------|---------*|


Duration Legend
---------------
W - whole; H - half; Q - quarter; E - 8th; S - 16th; T - 32nd; X - 64th; a - acciaccatura
+ - note tied to previous; . - note dotted; .. - note double dotted
Uncapitalized letters represent notes that are staccato (1/2 duration)
Irregular groupings are notated above the duration line
Duration letters will always appear directly above the note/fret number it represents the
duration for.  Duration letters with no fret number below them represent rests.  Multi-
bar rests are notated in the form Wxn, where n is the number of bars to rest for.  Low
melody durations appear below the staff

Tablature Legend
----------------
 h   - hammer-on
 p   - pull-off
 b   - bend
 pb  - pre-bend
 r   - bend release (if no number after the r, then release immediately)
 /\  - slide into or out of (from/to "nowhere")
 s   - legato slide
 S   - shift slide
  - natural harmonic
[n]  - artificial harmonic
n(n) - tapped harmonic
 ~   - vibrato
 tr  - trill
 T   - tap
 TP  - trem. picking
 PM  - palm muting
\n/  - tremolo bar dip; n = amount to dip
 \n  - tremolo bar down
 n/  - tremolo bar up
/n\  - tremolo bar inverted dip
 =   - hold bend; also acts as connecting device for hammers/pulls
 <>  - volume swell (louder/softer)
 x   - on rhythm slash represents muted slash
 o   - on rhythm slash represents single note slash

Misc Legend
-----------
 |  - bar
||  - double bar
||o - repeat start
o|| - repeat end
*|  - double bar (ending)
 :  - bar (freetime)
 $  - Segno
 &  - Coda
Tempo markers -  = BPM(8/16=s8/s16), where s8 = swing 8ths, s16 = swing 16ths


***************************************************************************************
* Generated using Power Tab Editor by Brad Larsen - http://powertab.guitarnetwork.org *
***************************************************************************************
Tap to rate this tab
 
# A B C D E F G H I J K L M N O P Q R S T U V W X Y Z