Song name
# A B C D E F G H I J K L M N O P Q R S T U V W X Y Z

Every Time I Die - Kill The Music tab

Band: Every Time I Die 
Song: Kill The Music
Album: Gutter Phenomenon
Tunning: Dropped D (D-A-D-G-B-E)
Transcribed by: Hangar_18

notes:here's a few things you should
know when your playing this song,
to get the weird noise,strum this chord:
|-----|
|--0--|
|--0--|
|--0--|
|--0--|
|--0--|
reeaally close to the bridge. but if you don't want to,
then just hit the open D power chord.
well, here it is:


Verse:
e|------------------------------------------------------|
B|-0----------------------------------------------------|
G|-0----------------------------------------------------|
D|-0-3p0-3p0-3p0-3p0-3p0-3/6--0---3p0-3/6--0---3p0-3/6--|
A|-0-3p0-3p0-3p0-3p0-3p0-3/6--0---3p0-3/6--0---3p0-3/6--|
D|-0-3p0-3p0-3p0-3p0-3p0-3/6--0---3p0-3/6--0---3p0-3/6--|  (x2)

|------------------|
|------------------|
|------------------|
|----------------3-|
|----5-----------3-|
|--0---6-0-3h5-0-3-|

 |------------------------------------------------------|
 |------------------------------------------------------|
 |------------------------------------------------------|
 |-0-3p0-3p0-3p0-3p0-3p0-3/6--0---3p0-3/6--0---3p0-3/6--|
 |-0-3p0-3p0-3p0-3p0-3p0-3/6--0---3p0-3/6--0---3p0-3/6--|
 |-0-3p0-3p0-3p0-3p0-3p0-3/6--0---3p0-3/6--0---3p0-3/6--|  (x2)

|----------------|
|----------------|
|----------------|
|----------------|
|----5-----------|
|--0---6-0-3h5-0-|

Chorus:
                        x3    
|-----------------|----------------|
|-----------------|----------------|
|--5/8-8-8-8-8-8--|----------------|
|--3/6-6-6-6-6-6--|----------------|  (play whole thing 2x)
|--3/6-6-6-6-6-6--|----5-----------|
|--3/6-6-6-6-6-6--|--0---6-0-3h5-0-|

|------------------------------------------|
|------------------------------------------|
|------------------------------------------|
|------------------------------------------|
|------------------------------------------|
|-3-p0-3p0-3h6--3-p0-3p0-3h6--3-p0-3p0-3h6-|

|----------------|
|----------------|
|----------------|
|----------------|
|----5-----------|
|--0---6-0-3h5-0-|

|------------------------------------------|
|------------------------------------------|
|------------------------------------------|
|------------------------------------------|
|------------------------------------------|
|-3-p0-3p0-3h6--3-p0-3p0-3h6--3-p0-3p0-3h6-|

|------------------|
|------------------|
|------------------|
|------------------|
|----5-------------|
|--0---6-0-3h5-0-3~|

Verse:
|------------------------------------------------------|
|-0----------------------------------------------------|
|-0----------------------------------------------------|
|-0----------------------------------------------------|
|-0----------------------------------------------------|
|-0-3p0-3p0-3p0-3p0-3p0-3/6--0---3p0-3/6--0---3p0-3/6--|  (x2)

|------------------|
|------------------|
|------------------|
|------------------|
|----5-----------3~|
|--0---6-0-3h5-0-3~|

|------------------------------------------------------|
|-0----------------------------------------------------|
|-0----------------------------------------------------|
|-0----------------------------------------------------|
|-0----------------------------------------------------|
|-0-3p0-3p0-3p0-3p0-3p0-3/6--0---3p0-3/6--0---3p0-3/6--|  (x2)

|--------------------|
|--------------------|
|--------------------|
|----------------3--6|
|----5-----------3--6|
|--0---6-0-3-5-0-3--6|

|-----------------------------------------------------|
|-----------------------------------------------------|
|-----------------------------------------------------|
|--3p0-3p0-3p0-3p0-3p0-3/6--0---3p0-3/6--0---3p0-3/6--|
|--3p0-3p0-3p0-3p0-3p0-3/6--0---3p0-3/6--0---3p0-3/6--|
|--3p0-3p0-3p0-3p0-3p0-3/6--0---3p0-3/6--0---3p0-3/6--|  (x2)

|----------------|
|----------------|
|----------------|
|----------------|
|----5-----------|
|--0---6-0-3h5-0-|

Chorus:
                        x3    
|-----------------|----------------|
|-----------------|----------------|
|--5/8-8-8-8-8-8--|----------------|
|--3/6-6-6-6-6-6--|----------------|  (play whole thing 2x)
|--3/6-6-6-6-6-6--|----5-----------|
|--3/6-6-6-6-6-6--|--0---6-0-3h5-0-|

|------------------------------------------|
|------------------------------------------|
|------------------------------------------|
|------------------------------------------|
|------------------------------------------|
|-3-p0-3p0-3h6--3-p0-3p0-3h6--3-p0-3p0-3h6-|

|----------------|
|----------------|
|----------------|
|----------------|
|----5-----------|
|--0---6-0-3h5-0-|

|------------------------------------------|
|------------------------------------------|
|------------------------------------------|
|------------------------------------------|
|------------------------------------------|
|-3-p0-3p0-3h6--3-p0-3p0-3h6--3-p0-3p0-3h6-|

|------------------|
|------------------|
|------------------|
|------------------|
|----5-------------|
|--0---6-0-3h5-0-3~|

Bridge:
|----------------------------------|
|----------------------------------|
|----------------------------------|
|------3-----------------------3-6-|
|--3h5---5~---3-5-3---5-3------3-6-|
|-------------------6-----6-5--3-6-|

|-----------------------------------------------------------|
|-----------------------------------------------------------|
|-----------------------------------------------------------|
|--------------------------3-----------------0-0-3--3--3/6--|
|----5-----------3-----------5~----5---------0-0-3--3--3/6--|
|--0---6-0-3h5-0---5-0-3h5-------0---6-0-3-5-0-0-3--3--3/6--|

|----------------------------------------------------------------|
|----------------------------------------------------------------|
|----------------------------------------------------------------|
|--------------------------3-------------------------------------|
|----5-----------3-----------5~----5---------0-0---3-5-3---5-3---|
|--0---6-0-3-5-0---5-0-3-5-------0---6-0-3-5-0-0---------6-----6-|

|-----------------------------------------------------------|
|-----------------------------------------------------------|
|-----------------------------------------------------------|
|--------------------------3-----------------0-0-3--3--3/6--|
|----5-----------3-----------5~----5---------0-0-3--3--3/6--|
|--0---6-0-3h5-0---5-0-3h5-------0---6-0-3-5-0-0-3--3--3/6--|

|--------------------------------------------------------------------------|
|--------------------------------------------------------------------------|
|--------------------------------------------------------------------------|
|--------------------------3-----------------------------------------------|
|----5-----------3-----------5~----5---------0-0---3-5-3---5-3-------3-6---|
|--0---6-0-3-5-0---5-0-3-5-------0---6-0-3-5-0-0---------6-----6-5~--3-6---|

|-------------------|
|-------------------|
|-------------------|
|--0-------0--------|
|--0-0-0-0-0-0-0-0--|
|--0-0-0-0-0-0-0-0--|

2nd Bridge:
|------------------------------------------------------|
|------------------------------------------------------|
|------------------------------------------------------|
|------------------------------------------------------|
|--3-3-3-3-3-3-3-3/6--3-3-3-3-3-3-3/6--3-3-3-3-3-3-3/6-|
|--3-3-3-3-3-3-3-3/6--3-3-3-3-3-3-3/6--3-3-3-3-3-3-3/6-|

|----------------------------|
|----------------------------|
|----------------------------|
|----------------------------|
|--5------------5----0-0-0-0-|
|----6-0-3~---0---6--0-0-0-0-|

|------------------------------------------------------|
|------------------------------------------------------|
|------------------------------------------------------|
|------------------------------------------------------|
|--3-3-3-3-3-3-3-3/6--3-3-3-3-3-3-3/6--3-3-3-3-3-3-3/6-|
|--3-3-3-3-3-3-3-3/6--3-3-3-3-3-3-3/6--3-3-3-3-3-3-3/6-|

|------------------------|
|------------------------|
|------------------------|
|------------------------|
|--5-----------5---------|
|----6-0-3~--0---6-0-3~--| (x2)

|--------------------------------------------------|
|--------------------------------------------------|
|--------------------------------------------------|
|--------------------------------------------------|
|--5-----------5---------5-----------5--------3-6--|
|----6-0-3~--0---6-0-3~----6-0-3~--0---6-0-3--3-6--|(x2)

Solo Rhythm
|--------------------------------------------------|
|--------------------------------------------------|
|--------------------------------------------------|
|--------------------------------------------------|
|--5-----------5---------5-----------5--------3-6--|
|----6-0-3~--0---6-0-3~----6-0-3~--0---6-0-3--3-6--|(x2)

Solo:
|-----------|
|--9--------|
|--12b-(x9)-|
|-----------|
|-----------|
|-----------|

|---------------------------------------------------------|
|-----------------------15----------15----------15--------|
|--12-12-12-10-10-13p10----10-13p10----10-13p10----10-13--|
|---------------------------------------------------------|
|---------------------------------------------------------|
|---------------------------------------------------------|

|--------------------------------------13-10--|
|-----15----------------13--------------------|
|--------13----10/13-------12----10h12--------|
|--12-------12-------12-------12--------------|
|---------------------------------------------|
|---------------------------------------------|

|--------------------------------------------------|
|-----15-------------------13-15-13----------15~---|
|--------13----10/13----------------13-10/13-------|
|--12-------12-------12-12-------------------------|
|--------------------------------------------------|
|--------------------------------------------------|

|------------------------|
|------------------------|
|------------------------|
|------------------------|
|--5-----------5---------|
|----6-0-3~--0---6-0-3~--|

|----------------------------------------|
|----------------------------------------|
|----------------------------------------|
|------3---------------------------------|
|--3-5---5~----3-5-3---5-3-------3-6-0---|
|--------------------6-----6-5~--3-6-0---|



Well there it is, the whole song. I hope it didn't 
come out too sloppy,if it did, i'll try re-submitting it
anyway, please rate/comment! your feed back is appreciated.   
Tap to rate this tab
# A B C D E F G H I J K L M N O P Q R S T U V W X Y Z