Song name
# A B C D E F G H I J K L M N O P Q R S T U V W X Y Z

Every Time I Die - Easy Tiger tab

Every Time I Die - Easy Tiger Guitar Tab
Originally tabbed By danlafond@hotmail.com
Edit Tab By James Paiva
Email: drkl5@hotmail.com

Tuning: Drop D
[D A D G B e]

Fix All The Errors From The Originally Made Tab. More Accurate And Easy To Play. Also 
In Those Little Solos [Not Sure (Maybe Close) About The One At 1:55]. Pretty Much Tab Most 
These Notes By Ear. Contact My Email or Comment For Any Questions.


Intro
(0:00)

Both Guitar
e|-------------------------------------------------|
B|-------------------------------------------------|
G|--10-10-10-10-10-10-10-10-10-10-10-10-10-10------|
D|--8--8--8--8--8--8--8--8--8--8--8--8--8--8--0/8--|x4
A|--8--8--8--8--8--8--8--8--8--8--8--8--8--8--0/8--|
D|--8--8--8--8--8--8--8--8--8--8--8--8--8--8--0/8--|

Verse
(0:12)

Both Guitars
e|----------------------------------------------------------|
B|----------------------------------------------------------|
G|----------------------------------------------------------|
D|--2-0-2-5--0-2-0-2-5--0-2-0-2-0-2-5--0-2-0-5-0-2-0-2-5-8--|x3
A|--2-0-2-5--0-2-0-2-5--0-2-0-2-0-2-5--0-2-0-5-0-2-0-2-5-8--|
D|--2-0-2-5--0-2-0-2-5--0-2-0-2-0-2-5--0-2-0-5-0-2-0-2-5-8--|

E|---------------------------------|
B|---------------------------------|
G|---------------------------------|
D|--2-0-2-5--0-2-0-2-5--0-2-0-2-0--|
A|--2-0-2-5--0-2-0-2-5--0-2-0-2-0--|
D|--2-0-2-5--0-2-0-2-5--0-2-0-2-0--|


Pre Chorus
(0:26)

   Guitar 1
e|-----------------------------------------------------------------------|
B|-----------------------------------------------------------------------|
G|--8-8-8-6---8-8-8-6----------------------------------------------------|
D|--8-8-8-6---8-8-8-6---8--8----------------2--2----------------2--2-----|
A|--6-6-6-3---6-6-6-3---8--8----------------2--2----------------2--2-----|
D|----------------------8--8----------------2--2----------------2--2--| -|
 | Guitar 2                                                           |
e|--------------------------------------------------------------------|
B|--------------------------------------------------------------------|
G|--8-8-8-6---8-8-8-6-------------------------------------------------|
D|--8-8-8-6---8-8-8-6---8--8----------------2--2----------------2--2--|
A|--6-6-6-3---6-6-6-3---8--8----------------2--2----------------2--2--|
D|----------------------8--8---7-5-7-10--0--2--2---7-5-7-10--0--2--2--|


(0:33)
Both Guitars
e|--------------------------------------------------------------------|
B|--------------------------------------------------------------------|
G|--8-8-8-6---8-8-8-6-------------------------------------------------|
D|--8-8-8-6---8-8-8-6---8--8----------------2--2----------------2--2--|x2
A|--6-6-6-3---6-6-6-3---8--8----------------2--2----------------2--2--|
D|----------------------8--8---7-5-7-10--0--2--2---7-5-7-10--0--2--2--|

Both Guitars
e|----------------------------|
B|----------------------------|
G|--8-8-8-6---8-8-8-6---------|
D|--8-8-8-6---8-8-8-6---8--8--|
A|--6-6-6-3---6-6-6-3---8--8--|
D|----------------------8--8--|

Chorus
(o:49)

Both Guitars
e|---------------------------------------------------------------------------------------|
B|---------------------------------------------------------------------------------------|
G|---------------------------------------------------------------------------------------|
D|--------------------------------------------------------------------------------5--8---|x2
A|--------------------------------------------------------------------------------5--8---|
D|--5-2--2--0-2--2--xxx--5-2--2--0-2--2--xxx--xxx--5-2--2--0-2--2--xxx--5-2--2--0-5--8---|

Verse?
(1:11)

Both Guitars
e|-----------------------------------------------------------------------------|
B|-----------------------------------------------------------------------------|
G|--10-10-10-10-10-10-10-10-10-10-10-10-10-10-10-10----------------------------|
D|--8--8--8--8--8--8--8--8--8--8--8--8--8--8--8--8--------------------------5--|x4
A|--8--8--8--8--8--8--8--8--8--8--8--8--8--8--8--8--------------------------5--|
D|--8--8--8--8--8--8--8--8--8--8--8--8--8--8--8--8--5-2--2--0-2-2--2--0-2-0-5--|

e|--------------------------------------------------------------------------------------------------|
B|--------------------------------------------------[Guitar 1 Stops Here; Just Guitar 2]------------|
G|--10-10-10-10-10-10-10-10-10-10-10-10-10-10-10-10-------------------------------------------------|
D|--8--8--8--8--8--8--8--8--8--8--8--8--8--8--8--8--8--8--8--8--8--8--8--8--8--8--8--8--8--8--8/12--|
A|--8--8--8--8--8--8--8--8--8--8--8--8--8--8--8--8--8--8--8--8--8--8--8--8--8--8--8--8--8--8--8/12--|
D|--8--8--8--8--8--8--8--8--8--8--8--8--8--8--8--8--8--8--8--8--8--8--8--8--8--8--8--8--8--8--8/12--|

(1:21)
Guitar Solo 1
e|--------13------------13-----13--16~~~~~~|
B|--13h15----15-13-15-------15-------------|
G|-----------------------------------------|
D|-----------------------------------------|
A|-----------------------------------------|
D|-----------------------------------------|

(1:34)
Guitar Solo 2
e|-------------------------------------------------------|
B|--------10------------10-----10--12>(13)>(12)--10~~~~~~|
G|--10h12----12-10-12-------12---------------------------|
D|-------------------------------------------------------|
A|-------------------------------------------------------|
D|-------------------------------------------------------|

Bridge
(1:39)

Both Guitars
e|-----------------------------------------------------------------------------------------|
B|-----------------------------------------------------------------------------------------|
G|-----------------------------------------------------------------------------------------|
D|--0-0-0-8---0-0-8---0--00000--0---0-0-0-8---0-0-8--0--00000--0--0--0--0--0--0--0---------|x2
A|--0-0-0-7---0-0-7---0--00000--0---0-0-0-7---0-0-7--0--00000--0--0--0--0--0--0--0---------|
D|--0-0-0-8---0-0-8---0--00000--0---0-0-0-8---0-0-8--0--00000--0--0--0--0--0--0--0-8b(10)--|
    . . .     . .     .  .....  .   . . .     . .    .  .....  .  .  .  .  .  .  .

(1:55)

Guitar 1
e|------------------------------------------------------------------|
B|------------------------------------------------------------------|
G|------------------------------------------------------------------|
D|--0-0-0-8-0-0-0-8-0-0-0-8-0-0-0-0-0-0-0-8---0-0-8---0-0-8--0-0-0--|x2
A|--0-0-0-7-0-0-0-7-0-0-0-7-0-0-0-0-0-0-0-7---0-0-7---0-0-7--0-0-0--|
D|--0-0-0-8-0-0-0-8-0-0-0-8-0-0-0-0-0-0-0-8---0-0-8---0-0-8--0-0-0--|
    . . .   . . .   . . .   . . . . . . .     . .     . .    . . .

Guitar 2
e|-------------------------------------------------------------------------------------------------------------------|
B|--11-11-11-11-11-11-11-11-11-11-11-11-11-11-11-11--11--11--11--11--11--11--11--11--11--11--11--11--11--11--11--11--|
G|--14-14-14-14-14-14-14-14-14-14-14-14-14-14-14-14>(15)(15)(15)(15)(15)(15)(15)(15)(15)(15)(15)(15)(15)(15)(15)(15)-|
D|-------------------------------------------------------------------------------------------------------------------|x2
A|-------------------------------------------------------------------------------------------------------------------|
D|-------------------------------------------------------------------------------------------------------------------|

(2:08)

Guitar 1
e|-----------|
B|-----------|
G|-----------|
D|--8--------| Let It Ring
A|--8--------|
D|--8--------|

Guitar 2
e|-----------|
B|---11------|
G|--(15)-----|
D|-----------|
A|-----------|
D|-----------|

(2:11)
Both Guitars
e|----------------------------|
B|----------------------------|
G|--8-8-8-6---8-8-8-6---------|
D|--8-8-8-6---8-8-8-6---8--8--|
A|--6-6-6-3---6-6-6-3---8--8--|
D|----------------------8--8--|

(2:14)
Both Guitars
e|----------------------------------------------------------|
B|----------------------------------------------------------|
G|----------------------------------------------------------|
D|--2-0-2-5--0-2-0-2-5--0-2-0-2-0-2-5--0-2-0-5-0-2-0-2-5-8--|x2
A|--2-0-2-5--0-2-0-2-5--0-2-0-2-0-2-5--0-2-0-5-0-2-0-2-5-8--|
D|--2-0-2-5--0-2-0-2-5--0-2-0-2-0-2-5--0-2-0-5-0-2-0-2-5-8--|

E|---------------------------------|
B|---------------------------------|
G|---------------------------------|
D|--2-0-2-5--0-2-0-2-5--0-2-0-2-0--|
A|--2-0-2-5--0-2-0-2-5--0-2-0-2-0--|
D|--2-0-2-5--0-2-0-2-5--0-2-0-2-0--|

(2:29)
Both Guitars
e|----------------------------|
B|----------------------------|
G|--8-8-8-6---8-8-8-6---------|
D|--8-8-8-6---8-8-8-6---8--8--|
A|--6-6-6-3---6-6-6-3---8--8--|
D|----------------------8--8--|

Chorus
(2:32)

   Guitar 1
e|---------------------------------------------------------------------------------------|
B|---------------------------------------------------------------------------------------|
G|---------------------------------------------------------------------------------------|
D|--------------------------------------------------------------------------------5--8---|
A|--------------------------------------------------------------------------------5--8---|
D|-----------------------5-2--2--0-2--2--xxx--xxx--5-2--2--0-2--2--xxx--5-2--2--0-5--8---|
 | Guitar 2
e|---------------------------------------------------------------------------------------|
B|---------------------------------------------------------------------------------------|
G|---------------------------------------------------------------------------------------|
D|--------------------------------------------------------------------------------5--8---|
A|--------------------------------------------------------------------------------5--8---|
D|--5-2--2--0-2--2--xxx--5-2--2--0-2--2--xxx--xxx--5-2--2--0-2--2--xxx--5-2--2--0-5--8---|


Both Guitars
e|---------------------------------------------------------------------------------------|
B|---------------------------------------------------------------------------------------|
G|---------------------------------------------------------------------------------------|
D|--------------------------------------------------------------------------------5--8---|
A|--------------------------------------------------------------------------------5--8---|
D|--5-2--2--0-2--2--xxx--5-2--2--0-2--2--xxx--xxx--5-2--2--0-2--2--xxx--5-2--2--0-5--8---|

End
(2:50)

Both Guitars
e|--------------------------------------------------------------------------------------------------|
B|--------------------------------------------------------------------------------------------------|
G|--10-10-10-10-10-10-10-10-10-10-10-10-10-10-10-10-10-10-10-10-10-10-10-10-10-10-10-10-10-10-10-10-|
D|--8--8--8--8--8--8--8--8--8--8--8--8--8--8--8--8--8--8--8--8--8--8--8--8--8--8--8--8--8--8--8--8--|
A|--8--8--8--8--8--8--8--8--8--8--8--8--8--8--8--8--8--8--8--8--8--8--8--8--8--8--8--8--8--8--8--8--|
D|--8--8--8--8--8--8--8--8--8--8--8--8--8--8--8--8--8--8--8--8--8--8--8--8--8--8--8--8--8--8--8--8--|

e|-------------------------------------------------|
B|-------------------------------------------------|
G|--8--------6--------8--------6-------------------|
D|--8--------6--------8--------6--------8-----8\0--|
A|--6--------3--------6--------3--------8-----8\0--|
D|--------------------------------------8-----8\0--|

=====================================

Keys:
/=slide up
\=slide down
b=bend
>=bent to sound note "( )"
x=dead note
~=vibrato
.=palm mute
Tap to rate this tab
# A B C D E F G H I J K L M N O P Q R S T U V W X Y Z