Guitaretab - guitar tabs
Song name
# A B C D E F G H I J K L M N O P Q R S T U V W X Y Z

Every Time I Die - Logic Of Crocodiles tab

Gtr I (D A D G B E) - 'Lead Guitar'
Gtr II (D A D G B E) - '2nd Guitar'

  Q=190
  F5 F#5D5 F5   D5EbD5
 4/4
  Gtr I
  Q  Q  Q  Q    E E E E H      W
|-------------|--------------|------||
|-------------|--------------|------||
|-------------|--------------|------||
|-3--4--0--3--|-0-1-0--------|------||
|-3--4--0--3--|-0-1-0--------|------||
|-3--4--0--3--|-0-1-0--------|------||


  D5                                           D5
  S S S S S S S S S S Q.     E E E E E E E E   S S S S S S S S S S Q.
|--------------------------|-----------1-0---|---------------------------|
|--------------------------|---------------1-|---------------------------|
|--------------------------|-----2-1-2-------|---------------------------|
|--------------------------|-0-3-------------|---------------------------|
|-0-0-0-0-0-0-0-0-0--------|-----------------|-0-0-0-0-0-0-0-0-0---------|
|-0-0-0-0-0-0-0-0-0--------|-----------------|-0-0-0-0-0-0-0-0-0---------|


  F5 F#5D5 F5   D5
  TP TP TP TP
  Q  Q  Q  Q    S S S S S S S S S S Q.     Q  Q  Q  Q
|-------------|--------------------------|--------------|
|-------------|--------------------------|--------------|
|-------------|--------------------------|-------2--1---|
|-3--4--0--3--|--------------------------|-0--3---------|
|-3--4--0--3--|-0-0-0-0-0-0-0-0-0--------|--------------|
|-3--4--0--3--|-0-0-0-0-0-0-0-0-0--------|--------------|


                F5                        E5
                                  TP TP
  Q  Q  Q  Q    W          +H     Q  Q    W
|----1--0-----|----------|--------0-----|------|
|----------1--|-6--------|-(6)-------1--|-5----|
|-2-----------|-5--------|-(5)----------|-4----|
|-------------|-3--------|-(3)----------|-2----|
|-------------|----------|--------------|------|
|-------------|----------|--------------|------|


  F5 F#5D5 F5   D5EbD5         D5
  Q  Q  Q  Q    E E E E H      S S S S S S S S S S Q.
|-------------|--------------|---------------------------|
|-------------|--------------|---------------------------|
|-------------|--------------|---------------------------|
|-3--4--0--3--|-0-1-0--------|---------------------------|
|-3--4--0--3--|-0-1-0--------|-0-0-0-0-0-0-0-0-0---------|
|-3--4--0--3--|-0-1-0--------|-0-0-0-0-0-0-0-0-0---------|


  D5                         D5
 2/4      4/4
  E Q.     E E E E E E E E   S S S S S S S S S S Q.
|--------|-----------1-0---|--------------------------|
|--------|---------------1-|--------------------------|
|--------|-----2-1-2-------|--------------------------|
|--------|-0-3-------------|--------------------------|
|-0------|-----------------|-0-0-0-0-0-0-0-0-0--------|
|-0------|-----------------|-0-0-0-0-0-0-0-0-0--------|


  F5 F#5D5 F5   D5
  Q  Q  Q  Q    S S S S S S S S S S Q.     E E E E E E E E
|-------------|--------------------------|-----------1-0----|
|-------------|--------------------------|---------------1--|
|-------------|--------------------------|-----2-1-2--------|
|-3--4--0--3--|--------------------------|-0-3--------------|
|-3--4--0--3--|-0-0-0-0-0-0-0-0-0--------|------------------|
|-3--4--0--3--|-0-0-0-0-0-0-0-0-0--------|------------------|


  D5                         F5   F#5
  S S S S S S S S S S Q.     H    H      +H     E Q.
|--------------------------|-----------|----------------|
|--------------------------|-----------|----------------|
|--------------------------|-----------|----------------|
|--------------------------|-3----4----|-(4)----4-------|
|-0-0-0-0-0-0-0-0-0--------|-3----4----|-(4)----4-------|
|-0-0-0-0-0-0-0-0-0--------|-3----4----|-(4)----4-------|


  D5 F5 D5EbD5         D5EbF#F5
  Q  Q  E E E E   H    E E E E
|---------------|--------------||
|---------------|--------------||
|---------------|--------------||
|-0--3--0-1-0---|------0-1-4-3-||
|-0--3--0-1-0---|------0-1-4-3-||
|-0--3--0-1-0---|------0-1-4-3-||


    D5                             D5
    S S S S S S S S S E. S S S S   S S S S S E. S S S S S S S S
||-------------------------------|------------------------------|
||o------------------------------|------------------------------|
||-------------------------------|------------------------------|
||-------------------------------|------------------------------|
||o-0-0-0-0-0-0-0-0-0----0-0-0-0-|-0-0-0-0-0----0-0-0-0-0-0-0-0-|
||--0-0-0-0-0-0-0-0-0----0-0-0-0-|-0-0-0-0-0----0-0-0-0-0-0-0-0-|


  D5                            EbD5  D5EbF#F5
  S E. S S S S S S S S S E.   E E E E E E E E  4x
|---------------------------|------------------||
|---------------------------|-----------------o||
|---------------------------|------------------||
|---------------------------|-0-1-0---0-1-4-3--||
|-0----0-0-0-0-0-0-0-0-0----|-0-1-0---0-1-4-3-o||
|-0----0-0-0-0-0-0-0-0-0----|-0-1-0---0-1-4-3--||


    E E E E E E E E  4x     E E E E E E E E  4x
||-------------------||-||-------------------||
||o-----------------o||-||o-----------------o||
||-------------------||-||-------------------||
||--0-1-0---0-1-4-3--||-||-------------------||
||o-0-1-0---0-1-4-3-o||-||o-----------------o||
||--0-1-0---0-1-4-3--||-||--0-1-0-1-0-1-4-3--||


                        D5EbD5  D5EbF#F5  D5EbD5  D5EbF#F5
    E E E E E E E E  4x E E E E E E E E   E E E E E E E E
||-------------------||-----------------|-----------------|
||o-----------------o||-----------------|-----------------|
||-------------------||-----------------|-----------------|
||-------------------||-----------------|-----------------|
||o-----------------o||-----------------|-----------------|
||--0-1-0-1-0-1-4-3--||-0-1-0-1-0-1-4-3-|-0-1-0-1-0-1-4-3-|
|
|   Gtr II
|   E E E E E E E E  4x E E E E E E E E   E E E E E E E E
||-------------------||-----------------|-----------------|
||o-----------------o||-----------------|-----------------|
||-------------------||-----------------|-----------------|
||--0-1-0-1-0-1-4-3--||-0-1-0---0-1-4-3-|-0-1-0---0-1-4-3-|
||o-----------------o||-0-1-0---0-1-4-3-|-0-1-0---0-1-4-3-|
||-------------------||-0-1-0---0-1-4-3-|-0-1-0---0-1-4-3-|


  D5EbD5  D5EbF#F5
                    TP TP TP TP
  E E E E E E E E   Q  Q  Q  Q
|-----------------|-------------||
|-----------------|-------------||
|-----------------|-------------||
|-----------------|-3--4--------||
|-----------------|-------------||
|-0-1-0-1-0-1-4-3-|-------0--3--||
|
| E E E E E E E E   W
|-----------------|-------------||
|-----------------|-------------||
|-----------------|-------------||
|-0-1-0---0-1-4-3-|-------------||
|-0-1-0---0-1-4-3-|-------------||
|-0-1-0---0-1-4-3-|-------------||


  D5      D5        D5EbD5  D5EbF#5  D5      D5
  PM      PM                         PM      PM
  |--3--| |--3--|                    |--3--| |--3--|
  Q  Q  Q Q  Q  Q   E E E E E E Q    Q  Q  Q Q  Q  Q
|-----------------|----------------|-----------------|
|----8--8----8--8-|----------------|----8--8----8--8-|
|---11-11---11-11-|----------------|---11-11---11-11-|
|-----------------|-0-1-0---0-1-4--|-----------------|
|-0-------0-------|-0-1-0---0-1-4--|-0-------0-------|
|-0-------0-------|-0-1-0---0-1-4--|-0-------0-------|


  D5      D5        F5 F#5D5 F5
  PM      PM        TP TP TP TP
  |--3--| |--3--|
  Q  Q  Q Q  Q  Q   Q  Q  Q  Q
|-----------------|-------------|
|----8--8----8--8-|-------------|
|---11-11---11-11-|-------------|
|-----------------|-3--4--0--3--|
|-0-------0-------|-x--x--x--x--|
|-0-------0-------|-3--4--0--3--|


    D5      D5        D5      D5        D5EbD5  D5EbF#5  F5 F#5D5 F5
    PM      PM        PM      PM                         TP TP TP TP
    |--3--| |--3--|   |--3--| |--3--|
    Q  Q  Q Q  Q  Q   Q  Q  Q Q  Q  Q   E E E E E E Q    Q  Q  Q  Q
||------------------|-----------------|----------------|--------------||
||o----8--8----8--8-|----8--8----8--8-|----------------|-------------o||
||----11-11---11-11-|---11-11---11-11-|----------------|--------------||
||------------------|-----------------|-0-1-0---0-1-4--|-3--4--0--3---||
||o-0-------0-------|-0-------0-------|-0-1-0---0-1-4--|-x--x--x--x--o||
||--0-------0-------|-0-------0-------|-0-1-0---0-1-4--|-3--4--0--3---||


  D5      D5        D5      D5
  PM      PM        PM      PM
  |--3--| |--3--|   |--3--| |--3--|
  Q  Q  Q Q  Q  Q   Q  Q  Q Q  Q  Q
|-----------------|-----------------|
|----8--8----8--8-|----8--8----8--8-|
|---11-11---11-11-|---11-11---11-11-|
|-----------------|-----------------|
|-0-------0-------|-0-------0-------|
|-0-------0-------|-0-------0-------|


  D5EbD5  D5EbF#5  D5
                   PM--------------|
  E E E E E E Q    S S S S S S S S S E. Q
|----------------|-------------------------||
|----------------|-------------------------||
|----------------|-------------------------||
|-0-1-0---0-1-4--|-------------------------||
|-0-1-0---0-1-4--|-0-0-0-0-0-0-0-0-0-------||
|-0-1-0---0-1-4--|-0-0-0-0-0-0-0-0-0-------||


  Db                                                   D
                                                3/4
  q  q  q.   e   +e  q  q.   q    q  q.   q  e   +e  q  e e e
|--------------|----------------|--------------|---------------|
|--------------|----------------|--------------|---------------|
|-6--6--6----6-|-(6)-6--6----6--|-6--6----6--6-|-(6)-6--7-7-7--|
|-5--5--5----5-|-(5)-5--5----5--|-5--5----5--5-|-(5)-5--6-6-6--|
|-4--4--4----4-|-(4)-4--4----4--|-4--4----4--4-|-(4)-4--5-5-5--|
|--------------|----------------|--------------|--------0-0-0--|

[ Tab from: http://www.guitaretab.com/e/every-time-i-die/71671.html ]
  Db                                                   D
 4/4                                            3/4
  q  q  q.   e   +e  q  q.   q    q  q.   q  e   +e  q  e e E
|--------------|----------------|--------------|--------------|
|--------------|----------------|--------------|--------------|
|-6--6--6----6-|-(6)-6--6----6--|-6--6----6--6-|-(6)-6--7-7---|
|-5--5--5----5-|-(5)-5--5----5--|-5--5----5--5-|-(5)-5--6-6---|
|-4--4--4----4-|-(4)-4--4----4--|-4--4----4--4-|-(4)-4--5-5---|
|--------------|----------------|--------------|--------0-0---|


  Db                                                   D
 4/4                                            3/4
  q  q  q.   e   +e  q  q.   q    q  q.   q  e   +e  q  e e e
|--------------|----------------|--------------|--------------|
|--------------|----------------|--------------|--------------|
|-6--6--6----6-|-(6)-6--6----6--|-6--6----6--6-|-(6)-6--7-7-7-|
|-5--5--5----5-|-(5)-5--5----5--|-5--5----5--5-|-(5)-5--6-6-6-|
|-4--4--4----4-|-(4)-4--4----4--|-4--4----4--4-|-(4)-4--5-5-5-|
|--------------|----------------|--------------|--------0-0-0-|


   7/8
    E E E E E E E   E E E E E E E   E E E E E E E   E E E E E E E
||----------------|---------------|---------------|----------------|
||o---------------|---------------|---------------|----------------|
||----------------|---------------|---------------|----------------|
||----------------|---------------|---------------|----------------|
||o---------------|---------------|---------------|----------------|
||--1p0h1p0h4p3p0h|=1p0h4p3p0h1p0h|=1p0h1p0h1p0h4p|=3p0h4p3p0h1p0h=|


                                                          1.,2.,3.
      D5    Db                                                   D
 2/4       4/4                                            3/4
  E E e e   q  q  q.   e   +e  q  q.   q    q  q.   q  e   +e  q  E E E  4x
|---------|--------------|----------------|--------------|---------------||
|---------|--------------|----------------|--------------|--------------o||
|---------|-6--6--6----6-|-(6)-6--6----6--|-6--6----6--6-|-(6)-6--7-7-7--||
|---------|-5--5--5----5-|-(5)-5--5----5--|-5--5----5--5-|-(5)-5--6-6-6--||
|-----0-0-|-4--4--4----4-|-(4)-4--4----4--|-4--4----4--4-|-(4)-4--5-5-5-o||
|-4p3-0-0-|--------------|----------------|--------------|--------0-0-0--||


  4.
    DbD5
 3/4            4/4
  E q  e e e     E E E E E E E E   E E E E E E E E   E E E E E E E E
|------------||------------------|-----------------|-----------------|
|------------||o-0-0-0-0-0-0-0-0-|-0-0-0-0-0-0-0-0-|-0-0-0-0-0-0-0-0-|
|---6--------||--6-0-6-0-6-0-0-6-|-0-6-0-6-0-0-6-0-|-6-0-6-0-6-0-0-6-|
|---5--------||------------------|-----------------|-----------------|
|---4--0-0-0-||o-----------------|-----------------|-----------------|
|------0-0-0-||------------------|-----------------|-----------------|


  E E E E E E E E    E E  E E  E E E  E
|-----------------|---------------------|
|-0-0-0-0-0-0-0-0-|--0-0--0-0--0-0-0--0-|
|-0-6-0-6-0-0-6-0-|-10-0-10-0-10-0-0-10-|
|-----------------|---------------------|
|-----------------|---------------------|
|-----------------|---------------------|


  E  E E  E E E  E E    E E  E E  E E E  E
|--------------------|---------------------|
|-0--0-0--0-0-0--0-0-|--0-0--0-0--0-0-0--0-|
|-0-10-0-10-0-0-10-0-|-10-0-10-0-10-0-0-10-|
|--------------------|---------------------|
|--------------------|---------------------|
|--------------------|---------------------|


  1.,2.                 3.
 5/4                   5/4
  E  E E E q  q  q   3x  E  E E E   Q   Q   Q
|--------------------||------------------------|
|-0--0-0-0-9--------o||--0--0-0-0--------------|
|-0-10-0-0----8--7---||--0-10-0-0--------------|
|--------------------||------------------------|
|-------------------o||-----------/11----------|
|--------------------||----------------13--12--|


    D5                                D5
   4/4                                              5/4
    q  q  q  E e   +E  q  E E E E E   q  q  q  E e   +E  Q  E  Q   Q   Q    4x
||---------------|------------------|--------------|------------------------||
||o--------------|----------0-0-0-0-|--------------|-----------------------o||
||---------------|----------6-0-6-0-|--------------|----------13------------||
||---------------|------------------|--------------|--------------13--12----||
||o-0--0--0----0-|-(0)-0------------|-0--0--0----0-|-(0)-0-----------------o||
||--0--0--0----0-|-(0)-0------------|-0--0--0----0-|-(0)-0------------------||


                                           Ebm Bbm Am  Abm
 5/4                    4/4
   Q    Q   Q   Q   Q     Q   Q   Q   Q     Q   Q   Q   Q
|----------------------|-----------------|-----------------|
|----------------------|-----------------|-----------------|
|------13--------------|-13--------------|-13--------------|
|-11-------13--12--11--|-----13--12--11--|-----13--12--11--|
|----------------------|-----------------|-----------------|
|----------------------|-----------------|-----------------|
|
| Gtr II
|  H.           H         Q   Q   Q   Q     Q   Q   Q   Q
|----------------------|-----------------|-----------------|
|----------------------|-----------------|-----------------|
|----------------------|-----------------|-----------------|
|----------------------|-----------------|-----------------|
|----------------------|-11---6---5---4--|-11---6---5---4--|
|----------------------|-----------------|-13---8---7---6--|


  D5                        F5F#D5F5D5EbF#F5  D5
  s s s s e e s s s s e e   E E E E E E E E   s s s s e e s s s s e e
|-------------------------|-----------------|--------------------------|
|-------------------------|-----------------|--------------------------|
|-------------------------|-----------------|--------------------------|
|-------------------------|-----------------|--------------------------|
|-0-0-0-0-0-0-0-0-0-0-0-0-|-3-4-0-3-0-1-4-3-|-0-0-0-0-0-0-0-0-0-0-0-0--|
|-0-0-0-0-0-0-0-0-0-0-0-0-|-3-4-0-3-0-1-4-3-|-0-0-0-0-0-0-0-0-0-0-0-0--|


                    D5                        F5F#D5F5D5EbF#F5
  E E E E E E E E   s s s s e e s s s s e e   E E E E E E E E
|-----------1-0---|-------------------------|-----------------|
|---------------1-|-------------------------|-----------------|
|-----2-1-2-------|-------------------------|-----------------|
|-0-3-------------|-------------------------|-----------------|
|-----------------|-0-0-0-0-0-0-0-0-0-0-0-0-|-3-4-0-3-0-1-4-3-|
|-----------------|-0-0-0-0-0-0-0-0-0-0-0-0-|-3-4-0-3-0-1-4-3-|


  D5                        F5 F#5D5 F5   D5
  s s s s e e s s s s e e   Q  Q  Q  Q    s s s s e e s s s s e e
|-------------------------|-------------|--------------------------|
|-------------------------|-------------|--------------------------|
|-------------------------|-------------|--------------------------|
|-------------------------|-3--4--0--3--|--------------------------|
|-0-0-0-0-0-0-0-0-0-0-0-0-|-3--4--0--3--|-0-0-0-0-0-0-0-0-0-0-0-0--|
|-0-0-0-0-0-0-0-0-0-0-0-0-|-3--4--0--3--|-0-0-0-0-0-0-0-0-0-0-0-0--|


  F5F#D5F5D5EbF#F5  D5
  E E E E E E E E   s s s s e e s s s s e e   E E E E E E E E
|-----------------|-------------------------|-----------1-0---|
|-----------------|-------------------------|---------------1-|
|-----------------|-------------------------|-----2-1-2-------|
|-----------------|-------------------------|-0-3-------------|
|-3-4-0-3-0-1-4-3-|-0-0-0-0-0-0-0-0-0-0-0-0-|-----------------|
|-3-4-0-3-0-1-4-3-|-0-0-0-0-0-0-0-0-0-0-0-0-|-----------------|


  D5                        F5F#D5F5D5EbF#F5  D5
  s s s s e e s s s s e e   E E E E E E E E   s s s s e e s s s s e e
|-------------------------|-----------------|--------------------------|
|-------------------------|-----------------|--------------------------|
|-------------------------|-----------------|--------------------------|
|-------------------------|-----------------|--------------------------|
|-0-0-0-0-0-0-0-0-0-0-0-0-|-3-4-0-3-0-1-4-3-|-0-0-0-0-0-0-0-0-0-0-0-0--|
|-0-0-0-0-0-0-0-0-0-0-0-0-|-3-4-0-3-0-1-4-3-|-0-0-0-0-0-0-0-0-0-0-0-0--|


  F5 F#5D5 F5   D5EbD5
  Q  Q  Q  Q    E E E E H
|-------------|--------------*|
|-------------|--------------*|
|-------------|--------------*|
|-3--4--0--3--|-0-1-0--------*|
|-3--4--0--3--|-0-1-0--------*|
|-3--4--0--3--|-0-1-0--------*|



Duration Legend
---------------
W - whole; H - half; Q - quarter; E - 8th; S - 16th; T - 32nd; X - 64th; a - acciaccatura
+ - note tied to previous; . - note dotted; .. - note double dotted
Uncapitalized letters represent notes that are staccato (1/2 duration)
Irregular groupings are notated above the duration line
Duration letters will always appear directly above the note/fret number it represents the
duration for.  Duration letters with no fret number below them represent rests.  Multi-
bar rests are notated in the form Wxn, where n is the number of bars to rest for.  Low
melody durations appear below the staff

Tablature Legend
----------------
 h   - hammer-on
 p   - pull-off
 b   - bend
 pb  - pre-bend
 r   - bend release (if no number after the r, then release immediately)
 /\  - slide into or out of (from/to "nowhere")
 s   - legato slide
 S   - shift slide
 - natural harmonic
[n]  - artificial harmonic
n(n) - tapped harmonic
 ~   - vibrato
 tr  - trill
 T   - tap
 TP  - trem. picking
 PM  - palm muting
\n/  - tremolo bar dip; n = amount to dip
 \n  - tremolo bar down
 n/  - tremolo bar up
/n\  - tremolo bar inverted dip
 =   - hold bend; also acts as connecting device for hammers/pulls
 <> - volume swell (louder/softer)
 x   - on rhythm slash represents muted slash
 o   - on rhythm slash represents single note slash

Misc Legend
-----------
 |  - bar
||  - double bar
||o - repeat start
o|| - repeat end
*|  - double bar (ending)
 :  - bar (freetime)
 $  - Segno
 &  - Coda
Tempo markers -  = BPM(8/16=s8/s16), where s8 = swing 8ths, s16 = swing 16ths

Related for Logic Of Crocodiles tab