Song name
# A B C D E F G H I J K L M N O P Q R S T U V W X Y Z

Every Time I Die - Gloom And How It Gets That Way tab

Help us improve GuitareTab! Take a short survey!
Artist: Every Time I Die
Song: Gloom And How It Gets That Way
Album: Gutter Phenomenon
Tabbed By: MurdererWaltz

Tuning: Standard, Dropped D

Intro [0:00-0:15]
E|--------------------------------------------------------|
B|--------------------------------------------------------|
G|-------------------------------------------------6-6-6--|
D|-------------------------------------------------5-5-5--| x4
A|-3p0-------------3p0-------------3p0-------------4-4-4--|
d|----3p0h3h5p3p0-----3p0h3h5p3p0-----3p0h3h5p3p0---------|

Riff 2 [0:16-0:18] Flanger effect | Guitar 1
E|--------------------------------|
B|--------------------------------|
G|-6-6-------6-6-------6-6--------|
D|-5-5-------5-5-------5-5--------|
A|-4-4-------4-4-------4-4--------|
d|-----0h3p0-----0h3p0-----0h3p0--|

Riff 3 [0:19-0:28]
E|------------------------------------------------------------|
B|------------------------------------------------------------|
G|----------------6-6-------6-6-------6-6---------------------|
D|----------------5-5-------5-5-------5-5---------------------|
A|-3p0------------4-4-------4-4-------4-4------3p0------------|
d|----3p0h3h5p3p0-----0h3p0-----0h3p0-----0h3p0---3p0h3h5p3p0-|

(Continued)
E|----------------------------------------------------------------|
B|----------------------------------------------------------------|
G|-6-6---------------------6-6------------------------------------|
D|-5-5---------------------5-5------------------------------------|
A|-4-4------3p0------------4-4------3p0------------3p0------------|
d|-----0h3p0---3p0h3h5p3p0-----0h3p0---3p0h3h5p3p0----3p0h3h5p3p0-|

Riff 3 [0:29-0:44]
E|----------------------------------------------|
B|----------------------------------------------|
G|-6-6-------6-6-------6-6----------------------|
D|-5-5-------5-5-------5-5----------------------| x4
A|-4-4-------4-4-------4-4-------3p0------------|
d|-----0h3p0-----0h3p0-----0h3p0----3p0h3h5p3p0-|

Riff 4 [0:45-0:46] Flanger Effect | Guitar 1
E|----------------|
B|----------------|
G|-6-6------------|
D|-5-5------------|
A|-4-4-3p0--------|
d|--------3p0h3b^-|

Riff 5 [0:47-0:55]
E|----------------    -------------------------|
B|----------------    -------------------------|
G|-6-6------------ x3 -6-6---------------------|
D|-5-5------------    -5-5---------------------|
A|-4-4-3p0--------    -4-4------3p0------------|
d|--------3p0h3b^-    -----0h3p0---3p0h3h5p3p0-|

Riff 6 [0:55-1:03]
E|----------------    --------------------------------|
B|----------------    --------------------------------|
G|-6-6------------ x3 --------------------------------|
D|-5-5------------    ---------3p0-2p0----------------|
A|-4-4-3p0--------    -5p0-3p0---------3p0------------|
d|--------3p0h3b^-    --------------------3p0h3h5p3p0-|

Riff 7 [1:03-1:19]
Guitar 1
E|-----------------------------------------------------------|
B|-----------------------------------------------------------|
G|-------------------------------------------------6-6-------|
D|-------------------------------------------------5-5-------|
A|-3p0-------------3p0-------------3p0-------------4-4-------|
d|----3p0h3h5p3p0-----3p0h3h5p3p0-----3p0h3h5p3p0------0h3p0-|
                                                                x4
Guitar 2
E|-----------------------------------------------------------|
B|-----------------------------------------------------------|
G|-------------------------------------------------6-6-------|
D|-3---------------3---------------3---------------5-5-------|
A|-3---------------3---------------3---------------4-4-------|
d|-3---------------3---------------3-------------------0h3p0-|

Then [1:19-1:20]
Guitar 1
E|-----------------------------------------------------------|
B|-----------------------------------------------------------|
G|-----------------------------------------------------------|
D|-----------------------------------------------------------|
A|-\\Pick-Scrape\\-------------------------------------------|
d|-----------------------------------------------------------|

Guitar 2
E|-----------------------------------------------------------|
B|-----------------------------------------------------------|
G|-----------------------------------------------------------|
D|-----------------------------------------------------------|
A|-----------------------------------------------------------|
d|-3/Slide-Up-then-back-Down\--------------------------------|

Riff 8 [1:20-1:36]
E|----------------------------------------------|
B|----------------------------------------------|
G|-6-6-------6-6-------6-6----------------------|
D|-5-5-------5-5-------5-5----------------------| x4
A|-4-4-------4-4-------4-4-------3p0------------|
d|-----0h3p0-----0h3p0-----0h3p0----3p0h3h5p3p0-|

Outro [1:37-End]
E|-------------------------------------------------|
B|-------------------------------------------------|
G|-6-6---------------------6-6---------------------|
D|-5-5---------------------5-5---------------------|
A|-4-4------3p0------------4-4------3p0------------|
d|-----0h3p0---3p0h3h5p3p0-----0h3p0---3p0h3h5p3p0-|
                                                              x2 (both rows)
(Continued)
E|-------------------------    --------------------------------|
B|-------------------------    --------------------------------|
G|-6-6---------------------    --------------------------------| (x2 on
D|-5-5---------------------    ---------3p0-2p0----------------| 2nd time)
A|-4-4------3p0------------    -5p0-3p0---------3p0------------|
d|-----0h3p0---3p0h3h5p3p0-    --------------------3p0h3h5p3p0-|

End on
E|----
B|----
G|----
D|-0--
A|-0--
d|-0--
Related for Gloom And How It Gets That Way tab