Song name
# A B C D E F G H I J K L M N O P Q R S T U V W X Y Z

Every Time I Die - Off Broadway tab

#----------------------------------PLEASE NOTE---------------------------------#
#This file is the author's own work and represents their interpretation of the #
#song. You may only use this file for private study, scholarship, or research. #
#------------------------------------------------------------------------------##

                                  OFF BROADWAY
                         As recorded by Every Time I Die
                         (From the 2003 Album HOT DAMN!)

Words by Keith Buckley

Music by Every Time I Die
Transcribed by Austin Mills

Gtr I (D A D G B E) - 'w/dist'
Gtr II (D A D G B E) - 'w/dist'

  Fast Hardcore Q=184
  D5    E5D5  G5D5           E5D5  F5D5    N.C.
 4/4
  Gtr I
    PM|   PM|   PM-|   PM|     PM|   PM--|
  E S S E S S E S  S E S S   E S S E S S E E E E
|--------------------------|---------------------||
|--------------------------|---------------------||
|--------------------------|---------------7-7-7-||
|-0-----2-----5------0-----|-2-----3-------6-6-6-||
|-0-0-0-2-0-0-5-0--0-0-0-0-|-2-0-0-3-0-0-0-5-5-5-||
|-0-0-0-2-0-0-5-0--0-0-0-0-|-2-0-0-3-0-0-0-------||
|
| Gtr II
|   PM|   PM|
| E S S E S S E Q.           H           E E E E
|--------------------------|---------------------||
|--------------------------|---------------------||
|--------------------------|---------------7-7-7-||
|-0-----2-----5------------|---------------6-6-6-||
|-0-0-0-2-0-0-5------------|---------------5-5-5-||
|-0-0-0-2-0-0-5------------|---------------------||


  D5    E5D5  G5D5                E5  D5      G5
    PM|   PM|   PM--------------|     PM----|
  E S S E S S E S S S S S S   S S E E S S S S E E E
|---------------------------|-----------------------|
|---------------------------|-----------------------|
|---------------------------|-----------------------|
|-0-----2-----5-------------|-----2-2---------5-5-5-|
|-0-0-0-2-0-0-5-0-0-0-0-0-0-|-0-0-2-2-0-0-0-0-5-5-5-|
|-0-0-0-2-0-0-5-0-0-0-0-0-0-|-0-0-2-2-0-0-0-0-5-5-5-|
|
|   PM|   PM|   PM--------------|     PM----|
| E S S E S S E S S S S S S   S S E E S S S S E E E
|---------------------------|-----------------------|
|---------------------------|-----------------------|
|---------------------------|-----------------------|
|-0-----2-----5-------------|-----2-2---------5-5-5-|
|-0-0-0-2-0-0-5-0-0-0-0-0-0-|-0-0-2-2-0-0-0-0-5-5-5-|
|-0-0-0-2-0-0-5-0-0-0-0-0-0-|-0-0-2-2-0-0-0-0-5-5-5-|


  D5    E5D5  G5D5          E5D5  F5D5    N.C.
  Gtrs I, II
    PM|   PM|   PM|   PM|     PM|   PM--|
  E S S E S S E S S E S S   E S S E S S E E E E
|-------------------------|---------------------|
|-------------------------|---------------------|
|-------------------------|---------------7-7-7-|
|-0-----2-----5-----0-----|-2-----3-------6-6-6-|
|-0-0-0-2-0-0-5-0-0-0-0-0-|-2-0-0-3-0-0-0-5-5-5-|
|-0-0-0-2-0-0-5-0-0-0-0-0-|-2-0-0-3-0-0-0-------|


  D5    E5D5  G5D5                  E5  D5      G5
    PM|   PM|   PM----------------|     PM----|
  E S S E S S E S S S S S S     S S E E S S S S E E E
|---------------------------||--------------------------||
|---------------------------||o------------------------o||
|---------------------------||--------------------------||
|-0-----2-----5-------------||------2-2---------5-5-5---||
|-0-0-0-2-0-0-5-0-0-0-0-0-0-||o-0-0-2-2-0-0-0-0-5-5-5--o||
|-0-0-0-2-0-0-5-0-0-0-0-0-0-||--0-0-2-2-0-0-0-0-5-5-5---||


    N.C.
    Gtrs I, II
    E E E E E Q.     E E E E E Q.           E E E E E Q.     E E E E E Q.
||-----------------|-----------------||-||-----------------|-----------------||
||o----------------|----------------o||-||o----------------|----------------o||
||-----------------|-----------------||-||-----------------|-----------------||
||-----------------|-----------------||-||-----------------|-----------------||
||o-----3----------|-----3----------o||-||o-----3----------|-----3----------o||
||--0-2---0-5-2----|-0-2---0-5-2-----||-||--0-2-----5-2----|-0-2-----5-2-----||


    N.C.
   3/4
    Gtrs I, II
    E E E E E E   E E E E E E   E E E E E E
||--------------|-------------|-------------|
||o-------------|-------------|-------------|
||--------------|-------------|-------------|
||--------------|-------------|-------------|
||o-------------|-------------|-----3-------|
||--5p0-5p0-2p0-|-5p0-5p0-2p0-|-0-2---0-5-2-|


  E E E E E E   E E E E E E   E E E E E E
|-------------|-------------|--------------||
|-------------|-------------|-------------o||
|-------------|-------------|--------------||
|-------------|-------------|--------------||
|-----3-------|-----3-------|-----3-------o||
|-0-2---0-5-2-|-0-2---0-5-2-|-0-2---0-5-2--||


   N.C.
   Gtr I
   E E E E E E   E E E E E E
||-------------|-------------|
||-------------|-------------|
||-------------|-------------|
||-------------|-------------|
||-------------|-------------|
||-5p0-5p0-2p0-|-5p0-5p0-2p0-|
|
|  Gtr II
|  E E E E E E   E E E E E E
||-------------|-------------|
||-------------|-------------|
||-------------|-------------|
||-------------|-------------|
||-------------|-------------|
||-5p0-5p0-2p0-|-5p0-5p0-2p0-|


  G5D5  G5D5  E5D5  G5D5    G5D5  E5D5
 4/4
    PM|   PM|   PM|   PM|     PM|   PM------------|
  E S S E S S E S S E S S   E S S E S S S S E S S E
|-------------------------|-------------------------||
|-------------------------|-------------------------||
|-------------------------|-------------------------||
|-5-----5-----2-----5-----|-5-----2-----------------||
|-5-0-0-5-0-0-2-0-0-5-0-0-|-5-0-0-2-0-0-0-0-0-0-0-0-||
|-5-0-0-5-0-0-2-0-0-5-0-0-|-5-0-0-2-0-0-0-0-0-0-0-0-||
|
|   PM|   PM|   PM|   PM|     PM|   PM
| E S S E S S E S S E S S   E S S E E   H
|-------------------------|-------------------------||
|-------------------------|-------------------------||
|-------------------------|-------------------------||
|-5-----5-----2-----5-----|-5-----2-----------------||
|-5-0-0-5-0-0-2-0-0-5-0-0-|-5-0-0-2-0---------------||
|-5-0-0-5-0-0-2-0-0-5-0-0-|-5-0-0-2-0---------------||


    N.C.                      D5
    Gtrs I, II
                              PM--------|
    E E E E E E E E   E E E E S S E S S E
||------------------|---------------------|
||o-----------------|---------------------|
||------------------|---------------------|
||------------------|---------------------|
||o-----------------|---------0-0-0-0-0-0-|
||--5p0-5p0-2p0-5p0-|-5p0-2p0-0-0-0-0-0-0-|


  N.C.    D5                  N.C.    D5
          PM----------------|         PM--|
  E E E E S S E S S E   S S E E E E E S S E
|---------------------|-----------------------|
|---------------------|-----------------------|
|---------------------|-----------------------|
|---------------------|-----------------------|
|---------0-0-0-0-0-0-|-0-0-0---------0-0-0---|
|-5p0-2p0-0-0-0-0-0-0-|-0-0-0-5p0-2p0-0-0-0---|


  N.C.                      D5
                            PM--------|
  E E E E E E E E   E E E E S S E S S E
|-----------------|---------------------|
|-----------------|---------------------|
|-----------------|---------------------|
|-----------------|---------------------|
|-----------------|---------0-0-0-0-0-0-|
|-5p0-5p0-2p0-5p0-|-5p0-2p0-0-0-0-0-0-0-|


  N.C.    D5    N.C.      D5
          PM--|           PM--------------|
  E E E E S S E E E   E E S S E S S E S S E
|-------------------|------------------------||
|-------------------|-----------------------o||
|-------------------|------------------------||
|-------------------|------------------------||
|---------0-0-0-----|-----0-0-0-0-0-0-0-0-0-o||
|-5p0-2p0-0-0-0-5p0-|-2p0-0-0-0-0-0-0-0-0-0--||


   N.C.
   Gtrs I, II
                                                 ~~~
   E E E E E Q.     E E E E E Q.     E E Q  E E  Q
||----------------|----------------|-----------------||
||----------------|----------------|-----------------||
||----------------|----------------|-----------------||
||----------------|----------------|-----------------||
||-----3----------|-----3----------|-3---------------||
||-0-2---0-5-2----|-0-2---0-5-2----|---5-3--3-5-[6]--||


    D5E5C5D5G5E5D5E5  C5D5G5E5D5  N.C.    D5E5C5D5G5E5D5E5  C5G5F5   G5G#5
    Gtrs I, II
                              PM|
    E E E E E E E E   E E E E E E E  E    E E E E E E E E   E E Q  E E Q
||------------------|-------------------|-----------------|-----------------||
||o-----------------|-------------0-(0)-|-----------------|----------------o||
||------------------|-------------3s=5--|-----------------|-----------------||
||------5-----------|-5-----------------|-----5-----------|-5---------------||
||o-0-2-3-0-5-2-0-2-|-3-0-5-2-0-0-------|-0-2-3-0-5-2-0-2-|-3-5-3--3-5-6---o||
||--0-2---0-5-2-0-2-|---0-5-2-0-0-------|-0-2---0-5-2-0-2-|---5-3--3-5-6----||


   D5
  6/8                  5/8
   E E H      H.        E H      E H
||----------|---------|--------|--------|
||----------|---------|--------|--------|
||----------|---------|--------|--------|
||-0--------|---------|--------|--------|
||-0--------|---------|--------|--------|
||-0--------|---------|--------|--------|


 6/8                 5/8
  H.        H.        E H      E H
|---------|---------|--------|--------||
|---------|---------|--------|--------||
|---------|---------|--------|--------||
|---------|---------|--------|--------||
|---------|---------|--------|--------||
|---------|---------|--------|--------||


    D5E5C5D5G5E5D5E5  C5D5G5E5D5  N.C.    D5E5C5D5G5E5D5E5  C5G5F5   G5G#5
   4/4
    Gtrs I, II
                              PM|
    E E E E E E E E   E E E E E E E  E    E E E E E E E E   E E Q  E E Q
||------------------|-------------------|-----------------|----------------||
||o-----------------|-------------0-(0)-|-----------------|---------------o||
||------------------|-------------3s=5--|-----------------|----------------||
||------5-----------|-5-----------------|-----5-----------|-5--------------||
||o-0-2-3-0-5-2-0-2-|-3-0-5-2-0-0-------|-0-2-3-0-5-2-0-2-|-3-5-3--3-5-6--o||
||--0-2---0-5-2-0-2-|---0-5-2-0-0-------|-0-2---0-5-2-0-2-|---5-3--3-5-6---||


    D5E5C5D5G5E5  D5E5C5D5G5E5  D5E5C5D5G5E5D5E5  C5G5F5   G5G#5
   3/4                         4/4
    Gtr I
    E E E E E E   E E E E E E   E E E E E E E E   E E Q  E E Q
||--------------|-------------|-----------------|-----------------||
||o-------------|-------------|-----------------|----------------o||
||--------------|-------------|-----------------|-----------------||
||------5-------|-----5-------|-----5-----------|-5---------------||
||o-0-2-3-0-5-2-|-0-2-3-0-5-2-|-0-2-3-0-5-2-0-2-|-3-5-3--3-5-6---o||
||--0-2---0-5-2-|-0-2---0-5-2-|-0-2---0-5-2-0-2-|---5-3--3-5-6----||
|
|   Gtr II
|   E E H         E E H         E E H       E E   E E Q  E E Q
||--------------|-------------|-----------------|-----------------||
||o-------------|-------------|-----------------|----------------o||
||--------------|-------------|-----------------|-----------------||
||--0-----------|-0-----------|-0---------------|-5---------------||
||o-0-----------|-0-----------|-0-----------0-2-|-3-5-3--3-5-6---o||
||--0-----------|-0-----------|-0-----------0-2-|---5-3--3-5-6----||


   N.C.
  3/4
   E E E E E E   E E E E E E
||-------------|-------------|
||-------------|-------------|
||-------------|-------------|
||-------------|-------------|
||-------------|-------------|
||-5p0-5p0-2p0-|-5p0-5p0-2p0-|
|
|  E E E E E E   E E E E E E
||-------------|-------------|
||-------------|-------------|
||-------------|-------------|
||-------------|-------------|
||-------------|-------------|
||-5p0-5p0-2p0-|-5p0-5p0-2p0-|


  G5D5  G5D5  E5D5  G5D5    G5D5  E5D5
 4/4
    PM|   PM|   PM|   PM|     PM|   PM------------|
  E S S E S S E S S E S S   E S S E S S S S E S S E
|-------------------------|---------------------------||
|-------------------------|---------------------------||
|-------------------------|---------------------------||
|-5-----5-----2-----5-----|-5-----2-------------------||
|-5-0-0-5-0-0-2-0-0-5-0-0-|-5-0-0-2-0-0-0-0-0-0-0-0---||
|-5-0-0-5-0-0-2-0-0-5-0-0-|-5-0-0-2-0-0-0-0-0-0-0-0---||
|
|   PM|   PM|   PM|   PM|     PM|   PM
| E S S E S S E S S E S S   E S S E E   H
|-------------------------|---------------------------||
|-------------------------|---------------------------||
|-------------------------|---------------------------||
|-5-----5-----2-----5-----|-5-----2-------------------||
|-5-0-0-5-0-0-2-0-0-5-0-0-|-5-0-0-2-0-----------------||
|-5-0-0-5-0-0-2-0-0-5-0-0-|-5-0-0-2-0-----------------||


  N.C.                      D5
  Gtrs I, II
                            PM--------|
  E E E E E E E E   E E E E S S E S S E
|-----------------|---------------------|
|-----------------|---------------------|
|-----------------|---------------------|
|-----------------|---------------------|
|-----------------|---------0-0-0-0-0-0-|
|-5p0-5p0-2p0-5p0-|-5p0-2p0-0-0-0-0-0-0-|


  N.C.                      D5
                            PM--------|
  E E E E E E E E   E E E E S S E S S E
|-----------------|---------------------|
|-----------------|---------------------|
|-----------------|---------------------|
|-----------------|---------------------|
|-----------------|---------0-0-0-0-0-0-|
|-5p0-5p0-2p0-5p0-|-5p0-2p0-0-0-0-0-0-0-|


    N.C.                      D5
                              PM--------|
    E E E E E E E E   E E E E S S E S S E
||------------------|---------------------|
||o-----------------|---------------------|
||------------------|---------------------|
||------------------|---------------------|
||o-----------------|---------0-0-0-0-0-0-|
||--5p0-5p0-2p0-5p0-|-5p0-2p0-0-0-0-0-0-0-|


  N.C.    D5
          PM----------------------------------|
  E E E E S S E S S E   S S E S S E S S E S S E
|---------------------|--------------------------||
|---------------------|-------------------------o||
|---------------------|--------------------------||
|---------------------|--------------------------||
|---------0-0-0-0-0-0-|-0-0-0-0-0-0-0-0-0-0-0-0-o||
|-5p0-2p0-0-0-0-0-0-0-|-0-0-0-0-0-0-0-0-0-0-0-0--||


  D5                                     N.C.    D5
                                     6/4
  Gtrs I, II
  E E H.        W          W          Q  E E E E E E H
|-------------|----------|----------|---------------------|
|-------------|----------|----------|---------------------|
|-------------|----------|----------|---------------------|
|-0-----------|----------|----------|---------------------|
|-0-----------|----------|----------|------------0--------|
|-0-----------|----------|----------|----5p0-2p0-0--------|


                                                         N.C.      D5
   4/4
    PM--|           PM--------|        PM--------------|
    S S E H.        S S E S S E H      S S E S S E S S E E E   E E E E H     4x
||----------------|------------------|-----------------------|---------------||
||o---------------|------------------|-----------------------|--------------o||
||----------------|------------------|-----------------------|---------------||
||----------------|------------------|-----------------------|---------------||
||o-0-0-0---------|-0-0-0-0-0-0------|-0-0-0-0-0-0-0-0-0-----|-----0--------o||
||--0-0-0---------|-0-0-0-0-0-0------|-0-0-0-0-0-0-0-0-0-5p0-|-2p0-0---------||


Duration Legend
---------------
W - whole; H - half; Q - quarter; E - 8th; S - 16th; T - 32nd; X - 64th; a - acciaccatura
+ - note tied to previous; . - note dotted; .. - note double dotted
Uncapitalized letters represent notes that are staccato (1/2 duration)
Irregular groupings are notated above the duration line
Duration letters will always appear directly above the note/fret number it represents the
duration for.  Duration letters with no fret number below them represent rests.  Multi-
bar rests are notated in the form Wxn, where n is the number of bars to rest for.  Low
melody durations appear below the staff

Tablature Legend
----------------
 h   - hammer-on
 p   - pull-off
 b   - bend
 pb  - pre-bend
 r   - bend release (if no number after the r, then release immediately)
 /\  - slide into or out of (from/to "nowhere")
 s   - legato slide
 S   - shift slide
  - natural harmonic
[n]  - artificial harmonic
n(n) - tapped harmonic
 ~   - vibrato
 tr  - trill
 T   - tap
 TP  - trem. picking
 PM  - palm muting
\n/  - tremolo bar dip; n = amount to dip
 \n  - tremolo bar down
 n/  - tremolo bar up
/n\  - tremolo bar inverted dip
 =   - hold bend; also acts as connecting device for hammers/pulls
 <>  - volume swell (louder/softer)
 x   - on rhythm slash represents muted slash
 o   - on rhythm slash represents single note slash

Misc Legend
-----------
 |  - bar
||  - double bar
||o - repeat start
o|| - repeat end
*|  - double bar (ending)
 :  - bar (freetime)
 $  - Segno
 &  - Coda
Tempo markers -  = BPM(8/16=s8/s16), where s8 = swing 8ths, s16 = swing 16ths


***************************************************************************************
* Generated using Power Tab Editor by Brad Larsen - http://powertab.guitarnetwork.org *
***************************************************************************************
Tap to rate this tab
# A B C D E F G H I J K L M N O P Q R S T U V W X Y Z