Song name
# A B C D E F G H I J K L M N O P Q R S T U V W X Y Z

Every Time I Die - In The Event That Everything Should Go Terribly Wrong tab

~ let ring


(0.00-0.10)
e--------------------------|
b--------------------------|
g--------------------------|
d--------------------------|
a---------3-------3--------|
D---6~------5~------3~-----|


(0.11-1.02)
e----------------------------------------------|
b----------------------------------------------|
g----------------------------------------------|
d------------------------3333333333-3333333333-|
a--3333333333-3333333333-3333333333-3333333333-|
D--6666666666-5555555555-3333333333-3333333333-|  X4


(1.16-1.56)
e------------------------------------------------------|
b------------------------------------------------------|
g------------------------------------------------------|
d-3-3-3-3~--3-3-3~--3~-------------3-3-3-3~--3-3-3-3~--|
a-3-3-3-3~--3-3-3~--3~-------------3-3-3-3~--3-3-3-3~--|
D-3-3-3-3~--3-3-3~--3~-------------3-3-3-3~--3-3-3-3~--|


(1.57-2.10)
e----------------------------------------------|
b----------------------------------------------|
g----------------------------------------------|
d------------------------3333333333-3333333333-|
a--3333333333-3333333333-3333333333-3333333333-|
D--6666666666-5555555555-3333333333-3333333333-|


(Guitar 2 played 1.57-2.10)
e----------------------------------------------|
b----------------------------------------------|
g----------------------------------------------|
d------------------------3333666666-3333666666-|
a----------------------------------------------|
D----------------------------------------------|


(2.11-2.23)
e----------------------------------------------|
b----------------------------------------------|
g----------------------------------------------|
d------------------------3-3-3-3~---3-3-3-3~---|
a--3333333333-3333333333-3-3-3-3~---3-3-3-3~---|
D--6666666666-5555555555-3-3-3-3~---3-3-3-3~---|


(Guitar 2 played 2.11-2.23)
e----------------------------------------------|
b----------------------------------------------|
g----------------------------------------------|
d------------------------3-3-6-6~---3-3-6-6~---|
a----------------------------------------------|
D----------------------------------------------|


(2.24-2.38)
e--------------------------|
b--------------------------|
g--------------------------|
d--------------------------|
a---------3-------3--------|
D---6~------5~------3~-----|


END.

Should be 100% correct. i hope it makes sense. the only different part that guitar two 
is noted, parallel to the part guitar one plays at the same time.
Tap to rate this tab
 
# A B C D E F G H I J K L M N O P Q R S T U V W X Y Z