Guitaretab - guitar tabs
Song name
# A B C D E F G H I J K L M N O P Q R S T U V W X Y Z

Every Time I Die - Tusk And Temper tab

Every Time I Die
"Tusk and Temper"
GUTTER PHENOMENON

Tuning(low to high) DADGBE


00:00-00:09
e ------------------|
b ------------------|
g ------------------|
d -0-333-0-333-0-3--|  x4
a -0-333-0-333-0-3--|
d -0-333-0-333-0-3--|

00:09-00:19
e ---  ------------------------     ---------------------------------------|
b ---  ------------------------     ---------------------------------------|
g ---  ------------------------     ---------------------------------------|
d -0-  ---------------3--333-0- x3  ---------------3-333-0-333-0-333-0-3-0-|
a -0-  -3p0-3p0-2-3-5----333-0-     -3p0-3p0-2-3-5---333-0-333-0-333-0-3-0-|
d -0-  ------------------333-0-     -----------------333-0-333-0-333-0-3-0-|
                         ***                         ***   ***   ***   *
00:19-00:27
e -----------------------------------------------------------|
b -----------------------------------------------------------|
g -----------------------------------------------------------|
d ---------------3-333-0-----------3---333-0---------------3-|
a -3p0-3p0-2-3-5---333-0---0-3-5-0---5-333-0-3p0-3p0-2-3-5---|
d -----------------333-0---------------333-0-----------------|
                   ***                 ***
e -----------------------|
b -----------------------|
g -----------------------|
d -333-0-333-0-333-0-3-0-|
a -333-0-333-0-333-0-3-0-|
d -333-0-333-0-333-0-3-0-|
   ***
00:27-00:44
e ---------------------    -------------|
b -000000000000--------    -------------|
g -333333333333--------    -------------|
d ---------------333-0- x3 -333-0-6-3-0-|  (Whole Section x2)
a ---------------333-0-    -333-0-6-3-0-|
d ---------------333-0-    -333-0-6-3-0-|

00:44-01:06 (Slow it down now..)
e -------------------    -----------------|
b -000000000000------    -----------------|
g -333333333333-33-0-    -----------------|
d --------------33-0- x2 -333-0-333-0-3-0-|
a --------------33-0-    -333-0-333-0-3-0-|
d --------------33-0-    -333-0-333-0-3-0-|
                *
e ---------------------------------------------------|
b -000000000000--------------------------------------|
g -333333333333--------------------------------------|
d --------------33-0-333-0-333-0-3-0-333-0-333-0-3-0-|
a --------------33-0-333-0-333-0-3-0-333-0-333-0-3-0-|
d --------------33-0-333-0-333-0-3-0-333-0-333-0-3-0-|
                *
e ---------------------------------------------------------------------|
b -000000000000-------000000000000-------------------------------------|
g -333333333333-------333333333333-------------------------------------|
d --------------33-0--------------33-0-333-0-333-0-3-0-333-0-333-0-3-0-|
a --------------33-0--------------33-0-333-0-333-0-3-0-333-0-333-0-3-0-|
d --------------33-0--------------33-0-333-0-333-0-3-0-333-0-333-0-3-0-|
                *                 *
01:06-01:15
e -------------------------------------------------------------|
b -------------------------------------------------------------|
g -------------------------------------------------------------|
d -------------6-3-------------6-3-------------6-3------6666-0-|
a -------------6-3-------------6-3-------------6-3------6666-0-|
d -666-3-666-3-6-3-666-3-666-3-6-3-666-3-666-3-6-3------6666-0-|

01:15-01:35
e ---------------------------------------------------------------------------|
b ---------------------------------------------------------------------------|
g ---------------------------------------------------------------------------|
d -333-0-333-0-3-0-333-0-333-0-333-0-333-0-3-0-333-0-333-0-3-0-333-0-33333-0-|
a -333-0-333-0-3-0-333-0-333-0-333-0-333-0-3-0-333-0-333-0-3-0-333-0-33333-0-|
d -333-0-333-0-3-0-333-0-333-0-333-0-333-0-3-0-333-0-333-0-3-0-333-0-33333-0-|

01:35-01:53
e -------------------    -----------------------------------|
b -------------------    -----------------------------------|
g -------------------    -----------------------------------|
d ---------33-33-3-0- x2 -----------3-------------33-33-3-0-| x2
a -/17-----33-33-3-0-    -0-3-5-5-0---5--0-3-5-5--33-33-3-0-|
d ---------33-33-3-0-    -------------------------33-33-3-0-|
[ Tab from: http://www.guitaretab.com/e/every-time-i-die/85518.html ]
01:53-02:02
e -------------------------------------------------------------|
b -------------------------------------------------------------|
g -------------------------------------------------------------|
d -333-0-333-0-3-0-333-0-333-0-3-0-333-0-333-0-3-0-333-0-6-3-0-|
a -333-0-333-0-3-0-333-0-333-0-3-0-333-0-333-0-3-0-333-0-6-3-0-|
d -333-0-333-0-3-0-333-0-333-0-3-0-333-0-333-0-3-0-333-0-6-3-0-|

02:02-02:21
e ---------------------    -------------|
b ---------------------    -------------|
g ---------------------    -------------|
d -----------3---333-0- x3 ---------6-3-|  (Whole section x2)
a -0-3-5-5-0--5--333-0-    -0-3-5-5-6-3-|
d ---------------333-0-    ---------6-3-|

02:21-02:30
e -------------------------------------------------------------|
b -------------------------------------------------------------|
g -------------------------------------------------------------|
d -------------6-3-------------6-3-------------6-3------6666-0-|
a -------------6-3-------------6-3-------------6-3------6666-0-|
d -666-3-666-3-6-3-666-3-666-3-6-3-666-3-666-3-6-3------6666-0-|

02:30-02:40
e ---------------------------------------------------------------------------|
b ---------------------------------------------------------------------------|
g ---------------------------------------------------------------------------|
d -333-0-333-0-3-0-333-0-333-0-333-0-333-0-3-0-333-0-333-0-3-0-333-0-33333-0-|
a -333-0-333-0-3-0-333-0-333-0-333-0-333-0-3-0-333-0-333-0-3-0-333-0-33333-0-|
d -333-0-333-0-3-0-333-0-333-0-333-0-333-0-3-0-333-0-333-0-3-0-333-0-33333-0-|

02:40-02:49
e ----------------------------------------|
b ----------------------------------------|
g ----------------------------------------|
d ------3-0------3-0-----3-0------33333-0-|
a ------3-0------3-0-----3-0------33333-0-|
d ------3-0------3-0-----3-0------33333-0-|

02:49-03:05
e ------------------------     ---------------------------------------|
b ------------------------     ---------------------------------------|
g ------------------------     ---------------------------------------|
d ---------------3--333-0- x2  ---------------3-333-0-333-0-333-0-3-0-|
a -3p0-3p0-2-3-5----333-0-     -3p0-3p0-2-3-5---333-0-333-0-333-0-3-0-|
d ------------------333-0-     -----------------333-0-333-0-333-0-3-0-|


e -----------------------------------------------------------|
b -----------------------------------------------------------|
g -----------------------------------------------------------|
d ---------------3-333-0-----------3---333-0---------------3-|
a -3p0-3p0-2-3-5---333-0---0-3-5-0---5-333-0-3p0-3p0-2-3-5---|
d -----------------333-0---------------333-0-----------------|

e -----------------------|
b -----------------------|
g -----------------------|
d -333-0-333-0-333-0-3-0-|
a -333-0-333-0-333-0-3-0-|
d -333-0-333-0-333-0-3-0-|

03:05-03:21
e ---------------------    -------------|
b -000000000000--------    -------------|
g -333333333333--------    -------------|
d ---------------333-0- x3 -333-0-6-3-0-|  (Whole Section x2. Last time, no
a ---------------333-0-    -333-0-6-3-0-|   final open note)
d ---------------333-0-    -333-0-6-3-0-|

03:21-03:32 (The pits open up..)
e --------------------------------------|
b --------------------------------------|
g --------------------------------------|
d -00-00---00-00-00-00---00-00-00---6-3-|
a -00-00---00-00-00-00---00-00-00---6-3-|
d -00-00---00-00-00-00---00-00-00---6-3-|

03:32-03:54
e ----------------------------------------|
b ----------------------------------------|
g ----------------------------------------|
d -00-00---00-00--0-0-00---00-00-00---6-3-|
a -00-00---00-00--0-0-00---00-00-00---6-3-|
d -00-00---00-00--0-0-00---00-00-00---6-3-|
                  *
e ----------------------------------------|
b ----------------------------------------|
g ----------------------------------------|
d -00-00---00-00-00-00---00-00-00---6-3-0-|
a -00-00---00-00-00-00---00-00-00---6-3-0-|
d -00-00---00-00-00-00---00-00-00---6-3-0-|


I'm pretty sure I'm missing some things but this is still pretty
close. Feel free to comment on it or whatever by visiting my
myspace: www.myspace.com/CEshleman

End.
Related for Tusk And Temper tab
Tusk And Temper chords by Every Time I Die