Song name
# A B C D E F G H I J K L M N O P Q R S T U V W X Y Z

Every Time I Die - Floater tab

                             Floater-Every Time I Die

Tabbed by: Charlixbear570
Email: BigDirty94@yahoo.com

Tuning: Drop D

INTRO
guitar 1, and 2
E|------------------------|
B|-----10-------10101010--|
G|-----13-------13131313--|
D|-0-0----0~--------------| x4
A|-0-0----0~--------------|
D|-0-0----0~--------------|

guitar 1
E|-------------------------|
B|----------------10101010-|
G|----------------13131313-|
D|-1---3-4-3-1~------------|
A|-1---3-4-3-1~------------|
D|-1---3-4-3-1~------------|

guitar 2
E|-----------------------------------------|
B|--------------------------------10101010-|
G|--------------------------------13131313-|
D|-4-333-1-0-4-333-1-0-3-4-3-1-------------|
A|-4-333-1-0-4-333-1-0-3-4-3-1-------------|
D|-4-333-1-0-4-333-1-0-3-4-3-1-------------|

both guitars
E|---------------------------------------------------|
B|-----10---10---10101010-------10---10---10101010---|
G|-----13---13---13131313-------13---13---13131313---|
D|-0-0----0----0------------00-----0----0------------|
A|-0-0----0----0------------00-----0----0------------|
D|-0-0----0----0------------00-----0----0------------|

both guitars
E|---------------------------------------------------------------|
B|---------------------------------------------------------------|
G|---------------------------------------------------------------|
D|-3-4-3-1-0~-3-4-3-1-0~-3-4-3-1--3-4-3-1-0~-3-4-3-1-0~-3-4-3-1--|
A|-3-4-3-1-0~-3-4-3-1-0~-3-4-3-1--3-4-3-1-0~-3-4-3-1-0~-3-4-3-1--| x2
D|-3-4-3-1-0~-3-4-3-1-0~-3-4-3-1--3-4-3-1-0~-3-4-3-1-0~-3-4-3-1--|

E|--------------------------------------------------|
B|----------10101010---------  -----10-----10101010-|
G|----------13131313---------  -----13-----13131313-|
D|--4-1-0--------------4-1-0~  -00-----000----------|  x2
A|--4-1-0--------------4-1-0~  -00-----000----------|
D|--4-1-0--------------4-1-0~  -00-----000----------|

E|--------------------------------------------------|
B|---------------10101010---------------------------|
G|---------------13131313---------------------------|
D|-0-0-10-0-10-0-----------0-0-10101010-00-3-4-3-1--| x2
A|-0-0-10-0-10-0-----------0-0-10101010-00-3-4-3-1--|
D|-0-0-10-0-10-0-----------0-0-10101010-00-3-4-3-1--|

E|-----------------------------------------------------|
B|-----10--------10101010----------10---10----10101010-|
G|-----13--------13131313----------13---13----13131313-|
D|-0-0----0-0000---------------0-0----0----0-----------| x2
A|-0-0----0-0000---------------0-0----0----0-----------|
D|-0-0----0-0000---------------0-0----0----0-----------|

E|------------------------------------------------------|
B|-----10---10----10101010--------10---10----10101010---|
G|-----13---13----13131313--------13---13----13131313---|
D|-0-0----0----0--------------0-0----0----0-------------|
A|-0-0----0----0--------------0-0----0----0-------------|
D|-0-0----0----0--------------0-0----0----0-------------|

both guitars
E|---------------------------------------------------------------|
B|---------------------------------------------------------------|
G|---------------------------------------------------------------|
D|-3-4-3-1-0~-3-4-3-1-0~-3-4-3-1--3-4-3-1-0~-3-4-3-1-0~-3-4-3-1--|
A|-3-4-3-1-0~-3-4-3-1-0~-3-4-3-1--3-4-3-1-0~-3-4-3-1-0~-3-4-3-1--| x2
D|-3-4-3-1-0~-3-4-3-1-0~-3-4-3-1--3-4-3-1-0~-3-4-3-1-0~-3-4-3-1--|

E|--------------------------------------             ---------------------|
B|----------10101010-----------10101010-             -----10-----10101010-|
G|----------13131313-----------13131313-             -----13-----13131313-|
D|--4-1-0--------------4-1-0~----------- x2          -00-----000----------|x5
A|--4-1-0--------------4-1-0~-----------             -00-----000----------|
D|--4-1-0--------------4-1-0~-----------             -00-----000----------|

E|---------------------------------------------------|
B|-----10---10----10101010--------10--------10101010-|
G|-----13---13----13131313--------13--------13131313-|
D|-0-0----0----0--------------0-0----0-0000----------| x2
A|-0-0----0----0--------------0-0----0-0000----------|
D|-0-0----0----0--------------0-0----0-0000----------|

E|-----------------------------------       |--------------|
B|-----------10---10--------10101010-       |--------------|
G|-----------13---13--------13131313-       |--------------|
D|-4-1-0--------0----0-0-0----------- x2    |-4----1----0~-|
A|-4-1-0--------0----0-0-0-----------       |-4----1----0~-|
D|-4-1-0--------0----0-0-0-----------       |-4----1----0~-|

E|---------------------------------------------------|
B|-----10---10----10101010--------10--------10101010-|
G|-----13---13----13131313--------13--------13131313-|
D|-0-0----0----0--------------0-0----0-0000----------| x2
A|-0-0----0----0--------------0-0----0-0000----------|
D|-0-0----0----0--------------0-0----0-0000----------|

E|--------|
B|--------|
G|--------|
D|-00-0-0-|
A|-00-0-0-|
D|-00-0-0-|


| ~  vibrato
Tap to rate this tab
# A B C D E F G H I J K L M N O P Q R S T U V W X Y Z