Song name
# A B C D E F G H I J K L M N O P Q R S T U V W X Y Z

Every Time I Die - A Gentlemans Sport tab

Song:A Gentleman's Sport
Artist:Every Time I Die
Album:The Big Dirty
Tabbed by:Duncan S/reelbigfish432

OK, cool song, from a cool band, 2 guitars, Jordan and Andy. In dropped D tuning.

Intro:
Guitar 1
E|------------------------------------|
B|------------------------------------|
G|------------------------------------|
D|------------------------------------|
A|-5-4-0----5-4-0----5-4-0----5-4-0---|
D|-------3--------3--------3--------3-|

1st Verse:
Both Guitars
E|------------------------------|
B|------------------------------|
G|------------------------------|
D|-7\6-3--7\6-3--7\6-3--7\6-3-6-|
A|-5\4-3--5\4-3--5\4-3--5\4-3-6-|
D|-----3------3------3------3-6-|

E|----------------|
B|----------------|
G|----------------|
D|-7\6-3--7\6-3-6-|x4
A|-5\4-3--5\4-3-6-|
D|-----3------3-6-|

Guitar 1
E|---------------------------------|
B|---------------------------------|
G|---------------------------------|
D|---------------------------------|
A|-------4-------------------------|
D|-6-3-0---3-6-6-0-6-3-0-3-6-6-6-0-|

Both Guitars
E|----------------|
B|----------------|
G|----------------|
D|-7\6-3--7\6-3-6-|
A|-5\4-3--5\4-3-6-|
D|-----3------3-6-|

Guitar 1
E|---------------------------------|
B|---------------------------------|
G|---------------------------------|
D|---------------------------------|
A|-------4-------------------------|
D|-6-3-0---3-6-6-0-6-3-0-3-6-6-6-0-|

Both Guitars
E|----------------|  |-----|
B|----------------|  |-----|
G|----------------|  |-----|
D|-7\6-3--7\6-3-6-|x2|-3-6-|
A|-5\4-3--5\4-3-6-|  |-3-6-|
D|-----3------3-6-|  |-3-6-|

Both Guitars
E|---------------------------------|
B|---------------------------------|
G|---------------------------------|
D|---------------------------------|x2
A|-------4-------------------------|
D|-6-3-0---3-6-6-0-6-3-0-3-6-6-6-0-|

Guitar 1
E|----------------|
B|----------------|
G|----------------|
D|-7\6-3--7\6-3-6-|
A|-5\4-3--5\4-3-6-|
D|-----3------3-6-|
 |                |
Guitar 2          |x2
E|----------------|
B|----------------|
G|----------------|
D|------------3-6-|
A|------------3-6-|
D|------------3-6-|

Both Guitars
E|---------------------------------|
B|---------------------------------|
G|---------------------------------|
D|---------------------------------|x2
A|-------4-------------------------|
D|-6-3-0---3-6-6-0-6-3-0-3-6-6-6-0-|

Guitar 1
E|----------------|
B|----------------|
G|----------------|
D|-7\6-3--7\6-3-6-|
A|-5\4-3--5\4-3-6-|
D|-----3------3-6-|
 |                |
Guitar 2          |x2
E|----------------|
B|----------------|
G|----------------|
D|------------3-6-|
A|------------3-6-|
D|------------3-6-|

Pre-Chorus:
Both Guitars
note:I'm a little unsure about this bit as it sounds like different harmonies but it'll do for now
E|---------------------------------------------|
B|---------------------------------------------|
G|---------------------------------------------|
D|-77777777-66666666-1010101010101010-99999999-|
A|-55555555-44444444--8-8-8-8-8-8-8-8-77777777-|
D|---------------------------------------------|

Guitar 1
E|---------------------------------|
B|---------------------------------|
G|---------------------------------|
D|---------------------------------|
A|-------4-------------------------|
D|-6-3-0---3-6-6-0-6-3-0-3-6-6-6-0-|

Chorus:
Both Guitars
E|-----------------------------------------|
B|-----------------------------------------|
G|-----------------------------------------|
D|-------------------------------------6---|
A|-------------------------------------6---|
D|-/12--0--3-6-3-0-3-/12--0--3-6-3-0-3-6---|
 |                                         |x2                         
E|-----------------------------------------|
B|-----------------------------------------|
G|-----------------------------------------|
D|-------------------------------------6-6-|
A|-------------------------------------6-6-|
D|-/12--0--3-6-3-0-3-/12--0--3-6-3-0-3-6-6-|

Post Chorus:
Guitar 1
E|---------|
B|---------|
G|---------|
D|---------|x7
A|-5-4-0---|
D|-------3-|

Guitar 1
E|----------------|
B|----------------|
G|----------------|
D|-------3-6--3-6-|
A|-5-4-0-3-6--3-6-|
D|-------3-6--3-6-|
 |                |
Guitar 2          |
E-----------------|
B-----------------|
G-----------------|
D--------3-6--3-6-|
A--------3-6--3-6-|
D--------3-6--3-6-|

Verse 2:
Both Guitars
E|---------------------------------|
B|---------------------------------|
G|---------------------------------|
D|---------------------------------|x2
A|-------4-------------------------|
D|-6-3-0---3-6-6-0-6-3-0-3-6-6-6-0-|

Guitar 1
E|----------------|
B|----------------|
G|----------------|
D|-7\6-3--7\6-3-6-|
A|-5\4-3--5\4-3-6-|
D|-----3------3-6-|
 |                |
Guitar 2          |x2
E|----------------|
B|----------------|
G|----------------|
D|------------3-6-|
A|------------3-6-|
D|------------3-6-|

Both Guitars
E|---------------------------------|
B|---------------------------------|
G|---------------------------------|
D|---------------------------------|x2
A|-------4-------------------------|
D|-6-3-0---3-6-6-0-6-3-0-3-6-6-6-0-|

Guitar 1
E|----------------|
B|----------------|
G|----------------|
D|-7\6-3--7\6-3-6-|
A|-5\4-3--5\4-3-6-|
D|-----3------3-6-|
 |                |
Guitar 2          |x2
E|----------------|
B|----------------|
G|----------------|
D|------------3-6-|
A|------------3-6-|
D|------------3-6-|

Pre-Chorus:
Both Guitars
E|--------------------------------------------|
B|--------------------------------------------|
G|------------------------------------9-9-9-9-|
D|-77777777-66666666-1010101010101010-9-9-9-9-|
A|-55555555-44444444--8-8-8-8-8-8-8-8-7-7-7-7-|
D|--------------------------------------------|

Final Chorus:
Guitar 1
E|---------------------------------------|
B|---------------------------------------|
G|---------------------------------------|
D|-------------------------------------6-|
A|-------------------------------------6-|
D|-/12--0--3-6-3-0-3-/12--0--3-6-3-0-3-6-|
 |                                       |
Guitar 2                                 |
E|---------------------------------------|
B|---------------------------------------|
G|---------------------------------------|
D|-------------------------------------6-|
A|-------------------------------------6-|
D|-------------------------------------6-|
                                                                  
E|---------------------------------------------|
B|---------------------------------------------|
G|---------------------------------------------|
D|-------------------------------------6-6-0-0-|
A|-------------------------------------6-6-0-0-|
D|-/12--0--3-6-3-0-3-/12--0--3-6-3-0-3-6-6-0-0-|
 |                                             |
Guitar 2                                       |                
E|---------------------------------------------|
B|---------------------------------------------|
G|---------------------------------------------|
D|-------------------------------------6-6-----|
A|-------------------------------------6-6-----|
D|-------------------------------------6-6-----|

Both Guitars
E|-----------------------------------------|
B|-----------------------------------------|
G|-----------------------------------------|
D|-------------------------------------6---|
A|-------------------------------------6---|
D|-/12--0--3-6-3-0-3-/12--0--3-6-3-0-3-6---|
                                                                 
E|-----------------------------------------|
B|-----------------------------------------|
G|-----------------------------------------|
D|-------------------------------------6-0-|
A|-------------------------------------6-0-|
D|-/12--0--3-6-3-0-3-/12--0--3-6-3-0-3-6-0-|

E|-----|
B|-----|
G|-----|
D|-3-6-|
A|-3-6-|
D|-3-6-|

Outro:
Both Guitars
E|----------------------|
B|----------------------|
G|-7----------7---------|
D|-7-0-3-0----7-0-3-0-6-|x2
A|-5-0-3-0----5-0-3-0-6-|
D|---0-3-0------0-3-0-6-|

Guitar 1
E|-------------------------|
B|-------------------------|
G|-7----------7------------|
D|-7-0-3-0----7-0-3--------|
A|-5-0-3-0----5-0-3-5-4----|
D|---0-3-0------0-3-----6--|
 |                         |
Guitar 2                   |
E|-------------------------|
B|-------------------------|
G|-7----------7------------|
D|-7-0-3-0----7-0-3--------|
A|-5-0-3-0----5-0-3--------|
D|---0-3-0------0-3--------|

Both Guitars
E|----------------------|
B|----------------------|
G|-7----------7---------|
D|-7-0-3-0----7-0-3-0-6-|
A|-5-0-3-0----5-0-3-0-6-|
D|---0-3-0------0-3-0-6-|

E|-------------------------|
B|-------------------------|
G|-7----------7------------|
D|-7-0-3-0----7-0-3-0-6-6\-|x2
A|-5-0-3-0----5-0-3-0-6-6\-|
D|---0-3-0------0-3-0-6-6\-|

That's it!
Have fun.
Tap to rate this tab
# A B C D E F G H I J K L M N O P Q R S T U V W X Y Z