Song name
# A B C D E F G H I J K L M N O P Q R S T U V W X Y Z

Every Time I Die - Rendez-voodoo tab

Band: Every Time I Die
Song: Rendez-Voodoo
Album: The Big Dirty
Tuning:dropped D
Tabbed By: rileybrown10@hotmail.com

Intro
e|----------------------------------------------|
B|----------------------------------------------|
G|----------------------------------------------|
D|-11-0-11-0-11-0-11-0-11-0-11-0-11-0-----------|
A|-11-0-11-0-11-0-11-0-11-0-11-0-11-0-----------|
E|-11-0-11-0-11-0-11-0-11-0-11-0-11-0-10h11h12--|
                                                   x2
e|------------------------------------------------|
B|------------------------------------------------|
G|---------------------<11-11>--------------------|
D|-0-11-11-0-11-0-11-0-<11-11>-10-10-10-11-11-11--|
A|-0-11-11-0-11-0-11-0---------10-10-10-11-11-11--|
E|-0-11-11-0-11-0-11-0---------10-10-10-11-11-11--|

Verse 1 "You better shove another..."
e|----------------------------------------------|
B|----------------------------------------------|
G|----------------------------------------------|
D|-11-0-11-0-11-0-11-0-11-0-11-0-11-0-----------|
A|-11-0-11-0-11-0-11-0-11-0-11-0-11-0-----------|
E|-11-0-11-0-11-0-11-0-11-0-11-0-11-0-10h11h12--|
                                                   x2
e|------------------------------------------------|
B|------------------------------------------------|
G|---------------------<11-11>--------------------|
D|-0-11-11-0-11-0-11-0-<11-11>-10-10-10-11-11-11--|
A|-0-11-11-0-11-0-11-0---------10-10-10-11-11-11--|
E|-0-11-11-0-11-0-11-0---------10-10-10-11-11-11--|

"Lord I've been down..."
e|--------------------|    |----------------------0--|
B|--------------------|    |----------------------0--|
G|-<3-3>--------------|x4  |-----------------0-------|
D|-<3-3>-3-3-3-4-4-4--|    |-666666666666-9/-0-0\----|
A|-------3-3-3-4-4-4--|    |-666666666666-9/---0\----|
E|-------3-3-3-4-4-4--|    |-666666666666-9/---0\----|

"Me and my girl..."
e|----------------------------------------------|
B|----------------------------------------------|
G|----------------------------------------------|
D|-11-0-11-0-11-0-11-0-11-0-11-0-11-0-----------|
A|-11-0-11-0-11-0-11-0-11-0-11-0-11-0-----------|
D|-11-0-11-0-11-0-11-0-11-0-11-0-11-0-10h11h12--|
                                                   x2
e|------------------------------------------------|
B|------------------------------------------------|
G|---------------------<11-11>--------------------|
D|-0-11-11-0-11-0-11-0-<11-11>-10-10-10-11-11-11--|
A|-0-11-11-0-11-0-11-0---------10-10-10-11-11-11--|
D|-0-11-11-0-11-0-11-0---------10-10-10-11-11-11--|

e|--------------------|    
B|--------------------|   
G|-<3-3>--------------|x4  
D|-<3-3>-3-3-3-4-4-4--|    
A|-------3-3-3-4-4-4--|    
D|-------3-3-3-4-4-4--|    

"Keep your chin up..."
e|--------------------------------------------------------------------|
B|--------------------------------------------------------------------|
G|--------------------------------------------------------------------|
D|---------------------------9-6------------------11-11-8-9-11-11-8-9-|x2
A|-9991299129912999----9-----7-4-999129912999-----9--9--6-7--9--9-6-7-|
D|-----------------1111-1111-----------------1111---------------------|

"We have salted the earth..."
e|-------------------------------------------------------|
B|-------------------------------------------------------|
G|-11-11-11--------11-11-11-----11-11-11-----------------|
D|-10-10-10--------10-10-10-----10-10-10-----------------|
A|-9--9--9--000000-9--9--9--000-9--9--9--9------10-------|
D|----------000000----------000-----------11-10----11-10-|
                                                           x2
e|---------------------------------------------------|
B|---------------------------------------------------|
G|-11-11-11--------11-11-11--------------------------|
D|-10-10-10--------10-10-10-11-11-8-9-12-12-12-12-12-|
A|-9--9--9--000000-9--9--9--9--9--6-7-10-10-10-10-10-|
D|----------000000-----------------------------------|

e|------------------------------------------0--|
B|------------------------------------------0--|
G|-------------------------------------0-------|
D|-11-11-8-9-11-11-8-9-666666666666-9\-0-0/----|
A|-9--9--6-7-9--9--6-7-666666666666-9\---0/----|
D|---------------------666666666666-9\---0/----|

e|---------------------------|
B|---------------------------|
G|-<11-11>-------------------|x2
D|-<11-11>-10-10-10-11-11-11-|
A|---------10-10-10-11-11-11-|
D|---------10-10-10-11-11-11-|

"The end is near..."
e|---------------------------------------------------------------------|
B|---------------------------------------------------------------------|
G|---------------------------------------------------------------------|
D|-0-11-11-0-11-0--11-11-0-11-0--0-11-11-0-11-0-11\-10-10-10-11-11-11--|x2
A|-0-11-11-0-11-0--11-11-0-11-0--0-11-11-0-11-0-11\-10-10-10-11-11-11--|
D|-0-11-11-0-11-0--11-11-0-11-0--0-11-11---11---11\-10-10-10-11-11-11--|

e|--------------------------------------------------------------------|
B|--------------------------------------------------------------------|
G|--------------------------------------------------------------------|
D|---------------------------9-6------------------11-11-8-9-11-11-8-9-|x2
A|-9991299129912999----9-----7-4-999129912999-----9--9--6-7--9--9-6-7-|
D|-----------------1111-1111-----------------1111---------------------|

e|-------------------------------------------------------|
B|-------------------------------------------------------|
G|-11-11-11--------11-11-11-----11-11-11-----------------|
D|-10-10-10--------10-10-10-----10-10-10-----------------|
A|-9--9--9--000000-9--9--9--000-9--9--9--9------10-------|
D|----------000000----------000-----------11-10----11-10-|
                                                           x2
e|---------------------------------------------------|
B|---------------------------------------------------|
G|-11-11-11--------11-11-11-----------12-12-12-12-12-|
D|-10-10-10--------10-10-10-11-11-8-9-11-11-11-11-11-|
A|-9--9--9--000000-9--9--9--9--9--6-7-10-10-10-10-10-|
D|----------000000-----------------------------------|

e|------------------------------------------0-|
B|------------------------------------------0-|
G|-------------------------------------0------|
D|-11-11-8-9-11-11-8-9-666666666666-9/-0-0\---|
A|--9--9-6-7--9--9-6-7-666666666666-9/---0\---|
D|---------------------666666666666-9/---0\---|

e|----------------------------------------------|
B|----------------------------------------------|
G|----------------------------------------------|
D|-11-0-11-0-11-0-11-0-11-0-11-0-11-0-----------|
A|-11-0-11-0-11-0-11-0-11-0-11-0-11-0-----------|
D|-11-0-11-0-11-0-11-0-11-0-11-0-11-0-10h11h12--|
                                                   x2
e|------------------------------------------------|
B|------------------------------------------------|
G|---------------------<11-11>--------------------|
D|-0-11-11-0-11-0-11-0-<11-11>-10-10-10-11-11-11--|
A|-0-11-11-0-11-0-11-0---------10-10-10-11-11-11--|
D|-0-11-11-0-11-0-11-0---------10-10-10-11-11-11--|

e|---------------------------------------------------------------------|
B|---------------------------------------------------------------------|
G|---------------------------------------------------------------------|
D|-0-11-11-0-11-0--11-11-0-11-0--0-11-11-0-11-0-11\-10-10-10-11-11-11--|x2
A|-0-11-11-0-11-0--11-11-0-11-0--0-11-11-0-11-0-11\-10-10-10-11-11-11--|
D|-0-11-11-0-11-0--11-11-0-11-0--0-11-11-0-11-0-11--10-10-10-11-11-11--|

| /  slide up
| \  slide down
| h  hammer-on
| p  pull-off
| ~  vibrato
| +  harmonic
| x  Mute note
===============================================================================
Tap to rate this tab
 
# A B C D E F G H I J K L M N O P Q R S T U V W X Y Z