Guitaretab - guitar tabs
Song name
# A B C D E F G H I J K L M N O P Q R S T U V W X Y Z

Everyday Jones - Let You Go chords

Highlighted       Show chord diagrams
Artist: Everyday Jones
Song: Let You Go
Album: Here I Am

 Everyday Jones
Words by: Alissa Jandt
Music by: Jason Green

www.everydayjones.com



Intro 
     Repeat 4 times, last time end on G5

    Am  Esus4  Am7       G5  Gsus4  G                   G5 
E||------------3----|-----3----3----3----------||  ||---3--||
B||--1----0----1----|-----3----1----0h----3----||  ||---3--||
G||--2----2----2----|-----0----0----0----------||x4||---0--||
D||--2----2----2----|-----0----0----0----------||  ||---0--||
A||-----------------|-----x----x----x----------||  ||---x--||
E||-----------------|-3-3-3----3----3----------||  ||---3--||


Verse
     Repeat until just before chorus,
     then play F

    Am  Esus4  Am7       G5  Gsus4  G                   F
E||------------3----|-----3----3----3----------||  ||---1--||
B||--1----0----1----|-----3----1----0h----3----||  ||---1--||
G||--2----2----2----|-----0----0----0----------||x4||---2--||
D||--2----2----2----|-----0----0----0----------||  ||---3--||
A||-----------------|-----x----x----x----------||  ||---3--||
E||-----------------|-3-3-3----3----3----------||  ||---1--||


Chorus
     C    G5      F    G5      F
E||-------3----|--1----3----|--1----||
B||--1----3----|--1----3----|--1----||
G||--0----0----|--2----0----|--2----||
D||--2----0----|--3----0----|--3----||
A||--3----x----|--3----x----|--3----||
E||--3----3----|--1----3----|--1----||


Bridge
     A       G       F          
E||--5----|--3----|--1----||
B||--5----|--3----|--1----||
G||--6----|--4----|--2----||
D||--7----|--5----|--3----||
A||--7----|--5----|--3----||
E||--5----|--3----|--1----||


[Verse]
Am                              G
I don't want to be here with you
If I have to hold your hand
Am                            G
I don't want you to be with me
Until you find someplace to land
Am
I only need you
                             G
If you don't want to let me go
                                F
So maybe you should give me a sign
                          C
Before you walk out the door






[Chorus]
                                    G
Cause I can't live with all this lying
                            F
You don't want to see me crying

But it's time to know
       G
Do I hold you close
    F              C
Or let you walk away
[ Tab from: http://www.guitaretab.com/e/everyday-jones/189776.html ]
                                 G
Because I can't keep you from flying
                           F
Even though I'm good at trying
I hate to loose
       G
It's time to choose
    F             C
To let you walk away 
               G  - F - G - F
Let you walk away






[Verse]
Am                       G
I've never been here before
                         Am
And I don't want it to end
                      G
You tell me you love me
                                Am
But you only treat me like a friend
                   G
Sometimes we get lazy 
                           Am
And we don't have time to grow
                 F
It's making me crazy
                          C
And it's time to let you know







[Chorus]
                                    G
Cause I can't live with all this lying
                            F
You don't want to see me crying

But it's time to know
       G
Do I hold you close
    F              C
Or let you walk away

                                 G
Because I can't keep you from flying
                           F
Even though I'm good at trying
I hate to loose
       G
It's time to choose
    F             C
To let you walk away 
               G  - F - G - F
Let you walk away





[Bridge]
A
Give me the world
                   F
I'll give you the sun
           G
To be the only one
A
All of my life
           F
All of my soul
            G               A - F - G 
If I could tell you not to go





[Chorus]
C                              G
There's no point in all this fighting
                            F
If I'm the only one who's trying
So it's time to know
       G
Do I hold you close
    F              C
Or let you walk away

                        G
I can't keep you from flying
                           F
Even though I'm good at trying
I hate to loose
       G
It's time to choose
    F              C
To let you walk
               G         F       G - F - C
Let you walk away, walk away, yeah


[Outro]
The outro just repeats the
same  C - G5 - F - G5 - F pattern


Ooohhhh, ohhhhh
Give me the world
I'll give you the sun
To be the only one
Would you be my only one
Baby be my only one
All my life all my soul
If I could tell you not to go
Could I tell you not to go
Baby don't leave me here alone
All my life all my soul
If I could tell you not to go
Could I tell you not to go
Baby don't leave me here alone
Related for Let You Go chords