Guitaretab - guitar tabs
Song name
# A B C D E F G H I J K L M N O P Q R S T U V W X Y Z

Everyday Jones - Hold The World chords

Highlighted       Show chord diagrams
Artist: Everyday Jones
Song: Hold the World
Album: Here I Am

 Everyday Jones
Words and Music by: Jason Green

www.everydayjones.com

Capo: 5

Tab notes relative to capo

Intro 
     G       Fadd9    C5       G       
E||--2----|--3-----|--3-----|--2----||
B||--3----|--3-----|--3-----|--3----||
G||--2----|--0-----|--0-----|--2----||
D||--0----|--2-----|--0-----|--0----||
A||-------|--3-----|--x-----|-------||
E||-------|--------|--3-----|-------||


Verse
     G       Fadd9    C5       G       
E||--2----|--3-----|--3-----|--2----||
B||--3----|--3-----|--3-----|--3----||
G||--2----|--0-----|--0-----|--2----||
D||--0----|--2-----|--0-----|--0----||
A||-------|--3-----|--x-----|-------||
E||-------|--------|--3-----|-------||


Chorus
     D       C       F       G          
E||--0----|--0----|--0----|--0----||
B||--0----|--0----|--1----|--3----||
G||--6----|--4----|--0----|--0----||
D||--7----|--5----|--2----|--4----||
A||--7----|--5----|--3----|--5----||
E||--5----|--3----|--3----|--5----||


Bridge
     F       G       C5      D7sus4 G    Gsus4         Am   Am7     F     
E||-------|-------|--3----|--0------2----3p2--------|------------|-------|
B||--1----|--3----|--3----|--3------3----3----------|-------3----|--1----|
G||--0----|--0----|--0----|--0------2----2----------|--0----0----|--0----|
D||--2----|--4----|--0----|-------------------------|--2----2----|--2----|
A||--3----|--5----|--x----|-------------------------|--2----2----|--3----|
E||--3----|--5----|--3----|-------------------------|--0----0----|--3----|


  G       Am   Am7  Am   Am7     F       G       C5    
-------|----------------------|-------|-------|--3----|
--3----|-------3---------3----|--1----|--3----|--3----|
--0----|--0----0----0----0----|--0----|--0----|--0----|
--4----|--2----2----2----2----|--2----|--4----|--0----|
--5----|--2----2----2----2----|--3----|--5----|--0----|
--5----|--0----0----0----0----|--3----|--5----|--3----|

[ Tab from: http://www.guitaretab.com/e/everyday-jones/189777.html ]
  D7sus4 G    Gsus4         Am   Am7     F       G       Am   Am7  Am   Am7   
--0------2----3p2--------|------------|-------|-------|----------------------|
--3------3----3----------|-------3----|--1----|--3----|-------3---------3----|
--0------2----2----------|--0----0----|--0----|--0----|--0----0----0----0----|
-------------------------|--2----2----|--2----|--4----|--2----2----2----2----|
-------------------------|--2----2----|--3----|--5----|--2----2----2----2----|
-------------------------|--0----0----|--3----|--5----|--0----0----0----0----|


  F       G       Am   Am   Am   Am      F       G      
-------|-------|----------------------|-------|-------||
--1----|--3----|----------------------|--1----|--3----||
--0----|--0----|--0----0----0----0----|--0----|--0----||
--2----|--4----|--2----2----2----2----|--2----|--4----||
--3----|--5----|--2----2----2----2----|--3----|--5----||
--3----|--5----|--0----0----0----0----|--3----|--5----||


[Verse]
G
You think you can
               Fadd9
Hold the world up
            C5
With your eyes
G 		Fadd9
Well, I don't subscribe to that
	 C5		  G
You know I, you know I don't



[Chorus]
D		C - F
I'm falling down
		G
To chase you around
D		     C - F
Well, I 'm falling down
			G
So I can chase you around



[Verse]
G		   Fadd9
It's times that I see
          C5		G
I find myself dreaming
                     Fadd9
My head under the table
C5			G
Awake I can see you here



[Chorus]
D		C - F
I'm falling down
		G
To chase you around
D		     C - F
Well, I 'm falling down
			G
So I can chase you around



[Bridge]
F	 G
I passed by your room
        C5     G     Am
Deep shadows here, yeah
F       G		Am
Don't take yourself from me
F     G
It's alright now
       C5      G       Am
We'll walk on by this day
F      G                 Am
Don't take yourself from me
F      G     Am
Don't break yourself



[Chorus]
D		C - F
I'm falling down
		G
To chase you around
D		     C - F
Well, I 'm falling down
			G
So I can chase you around

D		C - F
I'm falling down
		G
To chase you around
D		     C - F
Well, I 'm falling down
			G
So I can chase you around
Related for Hold The World chords