Guitaretab - guitar tabs
Song name
# A B C D E F G H I J K L M N O P Q R S T U V W X Y Z

Everyday Jones - Here I Am tab

Artist: Everyday Jones
Song: Here I Am
Album: Here I Am

 Everyday Jones
Words and Music by: Alissa Jandt

www.everydayjones.com



Intro 
     Em	     Bm      A
E||-------|--0----|--0----||
B||-------|--3----|--5----||
G||-------|--4----|--6----||
D||--2----|--4----|--7----||
A||--2----|--2----|-------||
E||-------|-------|-------||


Verse
     Em	     Bm      A
E||-------|--0----|--0----||
B||-------|--3----|--5----||
G||-------|--4----|--6----||
D||--2----|--4----|--7----||
A||--2----|--2----|-------||
E||-------|-------|-------||


Chorus
     D       A    Aadd9   G
E||--2----|--0----7----|--3----||
B||--3----|--5----5----|--3----||
G||--2----|--6----6----|--0----||
D||-------|--7----7----|--0----||
A||-------|------------|--x----||
E||-------|------------|--3----||


Bridge
	Bsus2				Asus2
E||----------------------------------|--------------------------------|
B||----------------------------------|--------------------------------|
G||----------------------------------|--------------------------------|
D||------------11--------------11----|------------9--------------9----|
A||-------9---------------9----------|-------7--------------7---------|
E||--7---------------7---------------|--5--------------5--------------|
[ Tab from: http://www.guitaretab.com/e/everyday-jones/189778.html ]
  Gsus2					Asus2			    B    B
--------------------------------|--------------------------------|--7----7----|
--------------------------------|--------------------------------|--7----7----|
--------------------------------|--------------------------------|--8----8----|
------------7--------------7----|------------9--------------9----|--9----9----|
-------5--------------5---------|-------7--------------7---------|--9----9----|
--3--------------3--------------|--5--------------5--------------|--7----7----|

  A    A       G    G       A    A  
--5----5----|--3----3----|--5----5----0--------------||
--5----5----|--3----3----|--5----5---------0---------||
--6----6----|--4----4----|--6----6--------------6----||
--7----7----|--5----5----|--7----7-------------------||
--7----7----|--5----5----|--7----7-------------------||
--5----5----|--3----3----|--5----5-------------------||


[Verse]
Em	Bm		A
They never needed you
Em         Bm             A
Determined to give up on all that you do
Em            Bm                      A
I guess they had their someone to believe
Em       Bm
Now you sit so high
           A
You can't help but love
The uglyness you pour into me




[Chorus]
D        A
Here I Am
        G 
Here I Am
I am on my knees cold and aching
D        A
Here I Am
         G
Here I Am




[Verse]
Em           Bm                   A
Should have took my chance to leave
Em     Bm                      A
But I like to hold on to that part of me
Em            Bm                A
And now I'm walking rainy sheets
Em              Bm
In second hand shoes and soggy feet
         A
And the road leads to clarity or self defeat




[Chorus]
D        A
Here I Am
        G 
Here I Am
I am on my knees cold and aching
D        A
Here I Am
         G
Here I Am





[Bridge]
B
Afraid of breaking

A
Alone in the dark

G
I'm out and down

A
Lift me up

B
I'm giving it all

A
I'm giving it up

G
There's no more lying

A
No more fear

A		B
And no more dying




[Chorus]
D        A
Here I Am
        G 
Here I Am
I am on my knees cold and aching
D        A
Here I Am
         G
Here I Am
Related for Here I Am tab