Guitaretab - guitar tabs
Song name
# A B C D E F G H I J K L M N O P Q R S T U V W X Y Z

Everyday Jones - Doesnt Really Matter chords

Highlighted       Show chord diagrams
Artist: Everyday Jones
Song: Doesn't Really Matter
Album: Here I Am

 Everyday Jones
Words by: Alissa Jandt
Music by: Jason Green

www.everydayjones.com

Capo: 2
Tablature fingering relative to capo

Intro 
     F#   F#   F#m7 F#m7    F#   F#   F#m7 F#m7    Bm   D5      Bm   D5     

E||----------------------|----------------------|------------|------------||
B||----------------------|----------------------|------------|------------||
G||------------7----7----|------------7----7----|------------|------------||
D||------------5----5----|------------5----5----|--7----5----|--7----5----||
A||------------7----7----|------------7----7----|--x----x----|--x----x----||
E||--0----0----0----0----|--0----0----0----0----|--8----8----|--8----8----||


Verse
     F#   F#   F#m7 F#m7    F#   F#   F#m7 F#m7    Bm   D5      Bm   D5     
E||----------------------|----------------------|------------|------------||
B||----------------------|----------------------|------------|------------||
G||------------7----7----|------------7----7----|------------|------------||
D||------------5----5----|------------5----5----|--7----5----|--7----5----||
A||------------7----7----|------------7----7----|--x----x----|--x----x----||
E||--0----0----0----0----|--0----0----0----0----|--8----8----|--8----8----||


Pre-Chorus
     Dsus2    A       
E||--------|-------||
B||--------|-------||
G||--------|-------||
D||--5-----|--5----||
A||--3-----|--2----||
E||--0-----|--0----||



Chorus
     A5   Asus4 A                          A       D    F#m  F#madd9- F#m   
E||--3----3-----3----------|------------|--0----|--0-----------------------|
B||--3----1-----0h1--------|------------|--3----|--1----3----1--------0----|
G||--0----0-----0----------|------------|--2----|--0----0----0--------0----|
D||--0----0-----0----------|------------|--0----|--2----2----2--------2----|
A||--x----x-----x----------|------------|--x----|--3----x----x--------x----|
E||--3----3-----3----------|--2----2----|--2----|--3----3----3--------3----|

[ Tab from: http://www.guitaretab.com/e/everyday-jones/189780.html ]
          A5   Asus4 A                          A       D    D    E    E      
-------|--3----3-----3----------|------------|--0----|--0----0--------------||
--1----|--3----1-----0h1--------|------------|--3----|--1----1----3----3----||
--0----|--0----0-----0----------|------------|--2----|--0----0----0----0----||
--2----|--0----0-----0----------|------------|--0----|--2----2----4----4----||
--x----|--x----x-----x----------|------------|--x----|--3----3----5----5----||
--3----|--3----3-----3----------|--2----2----|--2----|--3----3----5----5----||




Bridge
     Bm      D       A5      Bm/G Gadd9   
E||--0----|-------|--3----|--0----3-----||
B||--1----|--1----|--3----|--1----1-----||
G||--2----|--0----|--0----|--2----2-----||
D||--2----|--2----|--0----|--3----3-----||
A||-------|--3----|--x----|-------------||
E||-------|--3----|--3----|-------------||

 
[Verse]
Everybody's trying to be somebody
I'm just dying to be myself
I don't know how to keep on fighting
People lying, crying, driving
Everbody off the shelf
Then just watch you as you fall

There's this thing I can't replace
Just trying to face this on my own
Cause it's what I really wanted
You never really know what you've had
Unless it's gone
And it's all been said and done


[Pre-Chorus]
Time goes by, I will wonder why
Everything changes


[Chorus]
All these thing I have
All these things I hold
Everything I always wanted
Doesn't really matter, now you're gone
Every word you said
Seems to grow so cold
I never really wanted you to fade
Doesn't really matter, now you're gone


[Verse]
Things have changed
So re-arranged
You're so much better off alone
I thought you should know
Sometimes I sit and wonder
What things would be like
Had I not flown
Will I ever end up happy

All this time I often wonder
If I was the last to know
Maybe I'm the one who suffers
I guess you can't see where you've been
Until you find out where you're from
Sometimes you can't forget
And now you know

[Pre-Chorus]
Time goes by, I will wonder why
Everything changes


[Chorus]
All these thing I have
All these things I hold
Everything I always wanted
Doesn't really matter, now you're gone
Every word you said
Seems to grow so cold
I never really wanted you to fade
Doesn't really matter, now you're gone


[Bridge]
Seasons change
My life falls way 
Seasons change
My life falls away


[Chorus]
All these things I have 
All these things I hold
Everything I always wanted
Doesn't really matter, now you're gone
Every word you said
Seems to grow so cold
I never really wanted you to fade
Doesn't really matter, now you're gone
Related for Doesnt Really Matter chords