Guitaretab - guitar tabs
Song name
# A B C D E F G H I J K L M N O P Q R S T U V W X Y Z

Everyday Jones - Blue chords

Highlighted       Show chord diagrams
Artist: Everyday Jones
Song: Blue
Album: Here I Am

 Everyday Jones
Words and Music by: Alissa Jandt

www.everydayjones.com



Intro 
     C    C    C       Gadd11 Gadd11    C         C       Am/F Am/F  
E||-----------------|----------------|-----------------|--0----0----|
B||--1----1----1----|--0------0------|--1----0----1----|--1----1----|
G||--0----0----0----|--0------0------|--0----0----0----|--2----2----|
D||--2----2----2----|--0------0------|--2----0----2----|--3----3----|
A||--3----3----3----|--3------3------|--3----3----3----|------------|
E||--3----3----3----|--3------3------|--3----3----3----|------------|


  Fadd9 Fadd9 F           
--3-----3-----1----||
--1-----1-----1----||
--2-----2-----2----||
--3-----3-----3----||
-------------------||
-------------------||


Verse
     C    C    C       Gadd11 Gadd11    C         C       Am/F Am/F  
E||-----------------|----------------|-----------------|--0----0----|
B||--1----1----1----|--0------0------|--1----0----1----|--1----1----|
G||--0----0----0----|--0------0------|--0----0----0----|--2----2----|
D||--2----2----2----|--0------0------|--2----0----2----|--3----3----|
A||--3----3----3----|--3------3------|--3----3----3----|------------|
E||--3----3----3----|--3------3------|--3----3----3----|------------|


  Fadd9 Fadd9 F           
--3-----3-----1----||
--1-----1-----1----||
--2-----2-----2----||
--3-----3-----3----||
-------------------||
-------------------||

[ Tab from: http://www.guitaretab.com/e/everyday-jones/189781.html ]
Chorus
     Am      G5      Am/F Fadd9    Am      G5      Gsus4 G5   Gsus4 G        
E||--0----|--3----|--0----3-----|--0----|--3----|--3-----3----3-----3----||
B||--1----|--3----|--1----1-----|--1----|--3----|--1-----3----1-----0----||
G||--2----|--0----|--2----2-----|--2----|--0----|--0-----0----0-----0----||
D||--2----|--0----|--3----3-----|--2----|--0----|--0-----0----0-----0----||
A||--0----|--x----|-------------|--0----|--x----|--x-----x----x-----x----||
E||-------|--3----|-------------|-------|--3----|--3-----3----3-----3----||


[Verse]
C
How long
       F
Can I let this go by
C
Sitting here waiting
F
Worried all the time
         C		F
There's no life, no love, no anything
		C - F
Hiding in the lies




[Chorus]
Am		   G5		   F - Fadd9
I wonder if I'll always feel this way
            Am              G5		Gsus4 - G5 - Gsus4 -  G
If there's more to me than all of this pain

C
And this wonderful sadness
           F
Keeps me hanging on
	     C
Pulling me under
F
Drifting along
	   C		    F
It's so wonderful, wonderful




[Verse]
C
Hiding in the unknown
	F
In the back of my brain
		C
All of these answers
To all of these questions
   	   F
That are keeping me awake




[Chorus]
Am		   G5		   F - Fadd9
I wonder if I'll always feel this way
            Am              G5		Gsus4 - G5 - Gsus4 -  G
If there's more to me than all of this pain

C
And this wonderful sadness
           F
Keeps me hanging on
	     C
Pulling me under
F
Drifting along
	   C		    F
It's so wonderful, wonderful
C      F         C
All I want is you
Related for Blue chords