Guitaretab - guitar tabs
Song name
# A B C D E F G H I J K L M N O P Q R S T U V W X Y Z

Everyday Jones - Time With You chords

Highlighted       Show chord diagrams
Artist: Everyday Jones
Song: Time with You
 Everyday Jones
Words and Music by: Jason Green, Alissa Jandt

Capo: 5

Tab numbers relative to capo

www.everydayjones.com

Intro 
     C5      Am7     D7sus4    G      
E||--3----|--3----|--3------|-------||
B||--3----|--3----|--3------|--3----||
G||--0----|--0----|--0------|--0----||
D||--0----|--2----|--2------|--4----||
A||--x----|--2----|--0------|--5----||
E||--3----|--0----|--0------|--5----||


Verse
     C5      Am7     D7sus4    G      
E||--3----|--3----|--3------|-------||
B||--3----|--3----|--3------|--3----||
G||--0----|--0----|--0------|--0----||
D||--0----|--2----|--2------|--4----||
A||--x----|--2----|--0------|--5----||
E||--3----|--0----|--0------|--5----||


Pre-Chorus
     F       G       F       G      
E||-------|-------|-------|-------||
B||--1----|--3----|--1----|--3----||
G||--0----|--0----|--0----|--0----||
D||--2----|--4----|--2----|--4----||
A||--3----|--5----|--3----|--5----||
E||--3----|--5----|--3----|--5----||


Chorus
     C5      F/D     C/A     F6     
E||--3----|--3----|--3----|--0----||
B||--3----|--1----|--0----|--1----||
G||--0----|--0----|--0----|--0----||
D||--0----|--2----|--x----|--2----||
A||--x----|-------|--2----|--0----||
E||--3----|-------|--0----|-------||


Bridge
	Repeat section, last time play Cm6

     Am       D       G     C    G       E    E    F        Cm6    

E||--------|-------|------------------|-----------------||--0----||
B||--------|-------|------------------|-----------------||--3----||
G||--------|-------|------------------|-----------------||--3----||
D||--2S----|--7----|--4h----5----0----|--0----0----2----||--0----||
A||--2-----|--7----|--5-----5----0----|--2----2----3----||--x----||
E||--0-----|--0----|--0-----0---------|-----------------||--3----||



[Verse]

C5		   Am7
When I'm feeling down
		      D7sus4
When this road gets long
	      G
Sometimes I think about
	       C5
All the things I've given up
                 Am7
All this talking to myself
               D7sus4
Has made me realize
                   G
I need you by my side
                   C5
I need you in my life



            Am7
Can't take back the time
                 D7sus4
Cannot shake you from my mind
                    G
Where did I go wrong
C5           Am7                 D7sus4
Take these tired broken dreams

Turn me back

Take it back
      G
To where we found love, love
[ Tab from: http://www.guitaretab.com/e/everyday-jones/189783.html ]




[Pre-Chorus]
F              G
Here's to taking it back 
          F        G
All the words unspoken




[Chorus]
          C5         F/D
Because today, I'll be on my way
          C/A
All the miles I've seen
          F6
All the places that I've been
           C5
And in a way
          F/D
You've stayed here right with me
  C/A
Everywhere I went
   F6			
Everywhere I spent 
   C5		Am7 - D7sus4 - G
Time with you   



[Verse]
C5          Am7
All these miles
                   D7sus4
What things I've seen
                G
Never seem to make up
                  C5
For where we've been
                Am7
What is lost between us
                        D7sus4
When you're not in my life
                       G
If I could change a thing
                     C5
I'd have you by my side
              Am7
Can't take back my lies
                  D7sus4
I did to fill my empty time 
                  G       C5
When you weren't mine
            Am7
I'd do anything
     D7sus4
To take it back
Make it back
       G		F
To where we found love, love





[Pre-Chorus]
F              G
Here's to taking it back 
          F        G
All the words unspoken





[Chorus]
          C5         F/D
Because today, I'll be on my way
          C/A
All the miles I've seen
          F6
All the places that I've been
           C5
And in a way
          F/D
You've stayed here right with me
  C/A
Everywhere I went
   F6
Everywhere I spent
  Am
Time with you




[Bridge]
Am         D
Stay my love
         G    E    E   F
Ohhh, stay, here with me
Am         D
Stay my love
         G    E    E   F
Ohhh, stay, here with me
Am         D
Stay my love
         G    E    E   F
Ohhh, stay, here with me
Am         D
Stay my love
         G	Cm6
Ohhh, stay




[Chorus]
          C5         F/D
Because today, I'll be on my way
          C/A
All the miles I've seen
          F6
All the places that I've been
           C5
And in a way
          F/D
You've stayed here right with me
  C/A
Everywhere I went
   F6
Everywhere I spent
  C5
Time with you
Related for Time With You chords