Song name
# A B C D E F G H I J K L M N O P Q R S T U V W X Y Z

Everyday Jones - What Im Missing tab

What I'm Missing
www.everydayjones.com

Copyright 2005
Jason Green, Alissa Jandt
Everyday Jones


[Verse]
e|-----0-----0-----0h2-------0------------------------------------------------|
B|-----5-----0-----0---------0------------------------------------------------|
G|-----6-----6-----1---------8------------------------------------------------|
D|-----6-----7-----2---------9------------------------------------------------|
A|-----4-----7-----2---------9------------------------------------------------|
E|-----------5-----0---------7------------------------------------------------|


[Chorus]
e|-----0h2---2-----0-----0----------------------------------------------------|
B|-----0-----2-----0-----0----------------------------------------------------|
G|-----1-----2-----6-----8----------------------------------------------------|
D|-----2-----4-----7-----9----------------------------------------------------|
A|-----2-----4-----7-----9----------------------------------------------------|
E|-----0-----2-----5-----7----------------------------------------------------|


[Bridge]
e|-----0-----0-----0-----0----------------------------------------------------|
B|-----0-----0-----0-----0----------------------------------------------------|
G|-----6-----8-----4-----6----------------------------------------------------|
D|-----7-----9-----5-----7----------------------------------------------------|
A|-----7-----9-----5-----7----------------------------------------------------|
E|-----5-----7-----3-----5----------------------------------------------------|




Below is how Jason play's WIM live. Each layer (riff) is played over the verse.
So, first start recording the verse, then layer these over the top of it. You'll
have to listen to a live version to get the feel. Recommended show is the
Jazzbones 2005-07-20 show.



[Riff 1]
e|-----9-----x-----x-----7----------------------------------------------------|
B|-----9----14-----9-----7----------------------------------------------------|
G|-----9----14-----9-----7h8--------------------------------------------------|
D|----11----14-----9-----7h9--------------------------------------------------|
A|----11----12-----7-----7h9--------------------------------------------------|
E|-----9-----------------7----------------------------------------------------|


Jason varies on how many time he plays each note, just make sure to use the
slides and hammer-ons


[Riff 2]
e|-----7-7-7-7-77-5-5-5-5-55-4-4-4-4-44-2-2-2-2-2-2------------------------|
B|----------------------------------------------------------------------------|
G|----------------------------------------------------------------------------|
D|----------------------------------------------------------------------------|
A|----------------------------------------------------------------------------|
E|----------------------------------------------------------------------------|


[Riff 3]
e|-----9-9-9-9-9-9-/12--12--12--12--12--12-h14--14--14--14--14--14------------|
B|----------------------------------------------------------------------------|
G|----------------------------------------------------------------------------|
D|----------------------------------------------------------------------------|
A|----------------------------------------------------------------------------|
E|----------------------------------------------------------------------------|


[Riff 3]
e|-----11--11--11--11--11--11------------------------------------------------|
B|----------------------------------------------------------------------------|
G|----------------------------------------------------------------------------|
D|----------------------------------------------------------------------------|
A|----------------------------------------------------------------------------|
E|----------------------------------------------------------------------------|


[Riff 4] - Bass Line
e|----------------------------------------------------------------------------|
B|----------------------------------------------------------------------------|
G|----------------------------------------------------------------------------|
D|----------------------------------------------------------------------------|
A|---4-4-7-0-0----------------------------------------------------------------|
E|-------------00/7h-9-7-7----------------------------------------------------|


You can either fingerpick this part or if you're fast enough, use your pick
to get more percussive notes

[Riff 5]
e|---4-----4-----4-----4-----4-----4-----4-----4-----7-----7-----7-----7------|
B|-----5-----5-----5-----5-----5-----5-----5-----5-----9-----9-----9-----9----|
G|-------6-----6-----6-----6-----6-----6-----6-----6-----9-----9-----9-----9--|
D|----------------------------------------------------------------------------|
A|----------------------------------------------------------------------------|
E|----------------------------------------------------------------------------|


[Riff 5]
e|---2-----2-----2-----2------------------------------------------------------|
B|-----4-----4-----4-----4----------------------------------------------------|
G|-------4-----4-----4-----4--------------------------------------------------|
D|----------------------------------------------------------------------------|
A|----------------------------------------------------------------------------|
E|----------------------------------------------------------------------------|





Used Tab Symbols
_____________________
h = Hammer On
p = Pull Off
~ = Sustain
v = Vibrato
w = Wide Vibrato
b = Bend Up
hb = Bend Halfway
/ = Slide Up
= Slide Down
* = Trill
x = Muted Note
H = Harmonic
t = Right Hand Tap
: = Let Ring
_____________________
Tap to rate this tab
# A B C D E F G H I J K L M N O P Q R S T U V W X Y Z