Guitaretab - guitar tabs
Song name
# A B C D E F G H I J K L M N O P Q R S T U V W X Y Z

Everyday Jones - Gone In tab

Gone In
www.everydayjones.com

Copyright 1997
Jason Green

Everyday Jones

CAPO 2nd Fret
All notes relative to Capo


Jason plays the E bass note and alternates that with the D9, the A7 is just
there for chord support. You'll have to listen to the song to catch when he
put in the 5-2-5-7 bass lines in between the verses and choruses.



[Intro]
e|---x-------------------0-----------0----------------------------------------|
B|---x-------------------1-----------3----------------------------------------|
G|---x-------------------0-----------0----------------------------------------|
D|---9-------------------2-----------4----------------------------------------|
A|---7-------------------0-----------2-------------2---5---7------------------|
E|---0-----------------------------------------5------------------------------|

[ Tab from: http://www.guitaretab.com/e/everyday-jones/88423.html ]
[Verse]
e|---------0-----0------------------------------------------------------------|
B|---0-----1-----3-----0------------------------------------------------------|
G|---0-----0-----0-----0------------------------------------------------------|
D|---9-----2-----4-----9------------------------------------------------------|
A|---7-----0-----2-----7------------------------------------------------------|
E|---0-----------------0------------------------------------------------------|


[Chorus]
e|---0-----0-----0----10------------------------------------------------------|
B|---5-----7-----8-----8------------------------------------------------------|
G|---0-----0-----0-----0------------------------------------------------------|
D|---5-----7-----9-----9------------------------------------------------------|
A|---3-----5-----7-----7------------------------------------------------------|
E|----------------------------------------------------------------------------|


During the Bridge, Jason uses a lot of hammer ons and syncopated rhythms using
the high notes for added dynamics


[Bridge]
e|---7----10-----x-----x-----x---0---0----------------------------------------|
B|---7h8---8-----7-----x-----x---0---0----------------------------------------|
G|---7-----7-----7-----5h6---6---7---6----------------------------------------|
D|---7h8---9-----7-----5h7---7---0---7----------------------------------------|
A|---7-----7-----5-----5h7---7---7---7----------------------------------------|
E|---------------------5-----5---5---5----------------------------------------|


 2007 Everyday Jones
Related for Gone In tab