Song name
# A B C D E F G H I J K L M N O P Q R S T U V W X Y Z

Everyday Sunday - Wait tab

Tabbed by: Scott Keller
Let me know how this tab is......

Intro
e-----------------------------------------------------------------------------|
B-----1-------1--------1--------1-------1-------1--------1-------1------------|
G---2---2---2---2---2----2---2---2---2---2---2---2----2---2---2---2-----------|       4X
D-2-------3-------2--------3-------2-------3----------------------------------|
A----------------------------------------------------3------------------------|
E-------------------------------------------------------------3---------------|


Chorus
e------------------------------------------------------------------|
B------------------------------------------------------------------|
G-222222------222222------222222-------555555----------------------|
D-222222--33--222222--33--222222--33--555555--55-------------------|       2X
A-000000--33--000000--33--000000--33--333333--55-------------------|
E----------11----------11-----------11----------33-----------------|


Order-
Intro
Chorus
Intro
Chorus
Bridge ( same as intro but 6X )
Chorus


Email me at bonato@buffalo.com for any comments or what not. Thanks.
Tap to rate this tab
# A B C D E F G H I J K L M N O P Q R S T U V W X Y Z