Song name
# A B C D E F G H I J K L M N O P Q R S T U V W X Y Z

Everyday Sunday - Calculate Intoverse tab

Title: Calculate Intro/Verse
Artist: Everyday Sunday

Intro/Verse
E |----------------------------|----------------------------|
B |--10----10-x-----x--8--x----|--7-----7--x-----x--8--x----|
G |--7-----7--x-----x--7--x----|--7-----7--x-----x--7--x----|
D |----------------------------|----------------------------|
A |----------------------------|----------------------------|
D |----------------------------|----------------------------|
And that's pretty much it, just keep repeating




If you want to play the chorus too I THINK it MIGHT go like this: 
E |----------------|----------------|----------------|----------------|
B |----------------|----------------|----------------|----------------|
G |----------------|----------------|----------------|----------------|
D |--0-----0-------|-----5--0-------|--0-----0-------|-----5--0-------|
A |--0-----0-------|-----5--0-------|--0-----0-------|-----5--0-------|
D |--0-----0-------|-----5--0-------|--0-----0-------|-----5--0-------|
I'm not sure about that part, sorry I'm new at this :/
Tap to rate this tab
# A B C D E F G H I J K L M N O P Q R S T U V W X Y Z